Acordes de Guitarra » E »los Estrambóticos » Camino a Ninguna Parte (Tab)

Camino a Ninguna Parte
los Estrambóticos

Letras, Acordes y Tabs para Guitarra, Bajo y Ukulele

  • D                  G            A7
    Me viste salir de tu coladera
    D                         G       A7
    y corriste a tocar mi piel de banqueta
    D                    G                 A7
    nunca supe como bajarte una estrella,
    D                         G         A7
    pues mi reino no pasa de la azotea
    D                           G                  A7
    traigo en el bolsillo mi propio infierno
    D                     G          A7
    hoy voy a colgarlo en tu tendedero.
    
    
       D                           G              A7  
    Te fuiste a esconder al fondo del viento
          D                  G                  A7
    y veniste a caer junto a mi agujero.
    D                     G        A7
    No voy a aventarme desde este puente,
    
  •      D    G    A
    |----5----3----5---|
    |----7----3----5---|
    |----7----4----6---|
    |----7----5----7---|
    |----5----5----7---|
    |----5----3----5---|
    
    
    
    D              G         A
    Me viste salir de tu coladera
    D                      G     A
    y corriste a tocar mi piel de banqueta
    D                     G            A
    nunca supe como bajarte una estrella,
    D                          G       A
    pues mi reino no pasa de la azotea
    D                          G             A
    traigo en el bolsillo mi propio infierno
    
  • Esta frase va despues de los versos
    
    e----------------------------------------------------------------------
    B--10-7-10----3-3-3-3^7-5---------10-7-10---8-8-8-8h10-8---7h8p7-5h7---
    G--------------------------7-----------------------------------------7-
    D----------------------------------------------------------------------
    A----------------------------------------------------------------------
    E----------------------------------------------------------------------
    
    Y este es el pequeño solo que va a la mitad de la cancion que se repite una vez
    
    e----------------------------------------------------------
    B--3-3-3-3^7-7--10-8-8-8-----8-7-5--3-3-3-3^7-7-5-3--------
    G----------------------------------------------------------
    D----------------------------------------------------------
    A----------------------------------------------------------
    E----------------------------------------------------------
    
    Slide = ^
    Hammer On = h
    Pull Off = p
    
    Y que vivan los estrambos
  • +
    ¡Colabora con nosotros!
    Envíanos tu versión de esta canción

Letra de Camino a Ninguna Parte
Me viste salir de tu coladera
y corriste a tocar mi piel de banqueta
nunca supe como bajarte una estrella,
pues mi reino no pasa de la azotea
traigo en el bolsillo mi propio infierno
hoy voy a colgarlo en tu tendedero.
Te fuiste a esconder al fondo del viento
y veniste a caer junto a mi agujero.
No voy a aventarme desde este puente,
me duermo y despierto con ganas de verte. e
Ojalá este metro no tuviera estaciones,
pues no quiero transbordar,
voy camino a ninguna parte, pero
tengo prisa de llegar...
Camino a ninguna parte, me voy resbalando
Camino a ninguna parte, pero no me caigo
Camino a ninguna parte, pero no me caigo
Ojalá este metro no tuviera estaciones...




[Camino a Ninguna Parte chords][Camino a Ninguna Parte cifra]
© LaCuerda.net · aviso legal · privacidad · es · en · pt · contacto