Acordes de Guitarra » E »Estelares » Qué Será? (Tab)

Qué Será?
Estelares

  • Letra y Acordes
    e|-6/8---11-10--6/8-----6/8---11-10--6/8---
    B|-----------------------------------------
    G|-----------------------------------------
    D|-----------------------------------------
    A|-----------------------------------------
    E|-----------------------------------------
    
    Guitarra 2 :
    Es conveniente hacerlo en Cm y despues moves el indice para el 4to traste
    este punteo sigue en todo el tema
    e|-----------------------------------------
    B|-----4--------4-------4------------------
    G|---5---5----5-------5---5-----5----------
    D|-----------------------------------------
    A|-3--------3------------------------------
    E|------------------4--------4----3--------
    
    Cm                      G#
    Algo golpea a mi puerta no sé bien qué será
    Cm                  G#
    
  • +
    ¡Colabora con nosotros!
    Envíanos tu versión de esta canción

Letra de Qué Será?
Guitarra 2 :
Es conveniente hacerlo en Cm y despues moves el indice para el 4to traste
este punteo sigue en todo el tema
Algo golpea a mi puerta no sé bien qué será
sólo horas extrañas ¿qué será?
No conocen mi nombre me congratulan igual
piensan que sos un genio ¿qué será?
Una fiesta concurrida saltan todos quieren bailar.
El balcón las avenidas todos juntos giran igual.
Una fiesta concurrida yo me escapo quieren bailar.
El balcón las avenidas todos juntos giran igual.
Sacan foto tras foto hablan de la verdad
no conozco a ninguno ¿qué será?
Una fiesta concurrida. Mis amigos dónde estarán?
Yo me escapo a hurtadillas saltan todos giran igual
No me opongo ya es de día, me saludan giran igual.
Una fiesta concurrida todos juntos quieren bailar.
Una fiesta concurrida saltan todos quieren bailar.
El balcón las avenidas todos juntos giran igual.
Una fiesta concurrida. Mis amigos dónde estarán?
Yo me escapo a hurtadillas todo el mundo quiere bailar.



© LaCuerda.net · aviso legal · privacidad · contacto