Acordes de Guitarra » E »Erick Rubin » Cuando mueres por alguien (Tab)

Cuando mueres por alguien
Erick Rubin

Letras, Acordes y Tabs para Guitarra, Bajo y Ukulele

  • Intro C#m A  B
    
    C#m         A   B   
    Amaneci en tu cama
    C#      A   B
    te vi sonreir
    C#m       A    B
    algo que pensabas
    C#m       A    B
    no me podias decir
    
    A                  E
    hace mucho tiempo no siento tus besos
    C#m                A
    te estas apartando de mi 
    A
    el fuego se extingue 
    B                   E    
    sin ti no puedo vivir
    (rapidamente hace despues E A E )
    
  • Intro C#m7 A  B
    
    C#m7         A   B
    Amaneci en tu cama
    C#m7      A   B
    te vi sonreir
    C#m7       A    B
    algo que pensabas
    C#m7       A    B
    no me podias decir
    
    A                  E
    hace mucho tiempo no siento tus besos
    C#m7                  A
    te estas apartando de mi
    A
    el fuego se extingue
    B                   E + Riff
    sin ti no puedo vivir
    
    
  • E----4---------------2------
    B----5------2----4-----4----
    G----6------2----4-------4--   (X4)
    D--6--------2----4----------
    A---------0-----------------
    E---------------------------
    
    
    E----4---------------2------
    B----5------2----4-----4----
    G----6------2----4-------4--
    D--6--------2----4----------
    A---------0-----------------
    E---------------------------
     Amanecí en tu cama
    
    E----4---------------2------
    B----5------2----4-----4----
    G----6------2----4-------4--
    D--6--------2----4----------
    
  •      C#m  A  B               Bm A  F#          Bm   A    F#                   Bm A  F#
    
    e--8h9~~--------11h12~-9p8-8h9~-----------------------------------------------4--0--2~---|
    B-------------------------------9~-7~~---2-5-5s7~-----------------------------5--2--2~---|
    G-------------------------------------------------4h6~------------------------6--2--3~---|
    D------------------------------------------------------4h6-4-2h4-4h6-4p2h4~~--6--2--4~---|
    A-----------------------------------------------------------------------------4--0--4~---|
    E-----------------------------------------------------------------------------x--x--2~---|
    
    
    Verso 1:
    
    C#m     A        B
      Amanecí en tu cama,
    C#       A   B
      te vi sonreir.
    C#m      A     B
      Algo que pensabas,
    C#m        A      B
      no me podías decir,
    
  • +
    ¡Colabora con nosotros!
    Envíanos tu versión de esta canción

Letra de Cuando mueres por alguien
Amaneci en tu cama
te vi sonreir
algo que pensabas
no me podias decir
hace mucho tiempo no siento tus besos
te estas apartando de mi
el fuego se extingue
sin ti no puedo vivir
(rapidamente hace despues E A E )
Cuando mueres por alguien
y su pecho deja de latir
no se olvida por un instante
los momentos que pasamos juntos
asi.
(sigue el intro C#m A B *2)
(Mismos acordes que en el promer verso)
Te regale una rosa
y la dejaste morir
hay tantas cosas
que contigo quisiera vivir
Veo como el rio pasa
rumbo hacia el mar
no puedes huir
y tu no me queres amar
Cuando mueres por alguien
y su pecho deja de latir
no se olvida por un instante
los momentos que pasamos juntos,
los momentos que pasamos juntos asi.
termina con los mismos cambios rápidos de E A E *2




[Cuando mueres por alguien chords][Cuando mueres por alguien cifra]
© LaCuerda.net · aviso legal · privacidad · es · en · pt · contacto