Tab p/Bajo de Enanitos Verdes: Mariposas
Enanitos Verdes  corregir
desconocido
En la versión de video hay dos bajos el de acá es el que sobresale
el 2do bajo son algunos arreglos que se hacen ENCIMA del primer bajo
SOLO EN ALGUNAS PARTES y en esas partes el primer bajo sigue sonando:

(INTRO)

G|----------------------------|
D|----------------------------|
A|--2-22--------5-55----------|
E|--------3-33--------5-55----| x4

No es tan cierto...

G|--------------------------------------------------------|
D|--------------------------------------------------------|
A|--2-22--------5-55--------2-22--------------5-55--5-55--|
E|--------3-33--------2-22--------3-33--5-55--------------|

Las miradas

G|----------------------------|
D|----------------------------|
A|--2-22--------5-55----------|
E|--------3-33--------5-55----| x2

Sin embargo digo siendo un distraído...

G|--------------------------------------------------------|
D|--------------------------------------------------------|
A|--2-22--------5-55--------2-22--------------5-55--5-55--|
E|--------3-33--------2-22--------3-33--5-55--------------|

Si te vas...

G|----------------------------------------------------|
D|--9--9--7--4--5--5--4--5--------4--5--7--7--5--7----|
A|--------------------------5--5----------------------|
E|----------------------------------------------------| x2

O quizas...

G|--------------------------------------------------------------------|
D|--------------------------------------------------------------------|
A|--9--9--7--4--5--5--4--5--4--4--2--4--------------------5-55--5-55--|
E|--------------------------------------2-22--3-33--5-55--------------|

(INTRO)

G|----------------------------|
D|----------------------------|
A|--2-22--------5-55----------|
E|--------3-33--------5-55----| x4

Sin embargo...

G|--------------------------------------------------------|
D|--------------------------------------------------------|
A|--2-22--------5-55--------2-22--------------5-55--5-55--|
E|--------3-33--------2-22--------3-33--5-55--------------|

Si te vas...

G|----------------------------------------------------|
D|--9--9--7--4--5--5--4--5--------4--5--7--7--5--7----|
A|--------------------------5--5----------------------|
E|----------------------------------------------------| x2

O quizas...

G|--------------------------------------------------------------------|
D|--------------------------------------------------------------------|
A|--9--9--7--4--5--5--4--5--4--4--2--4--------------------5-55--5-55--|
E|--------------------------------------2-22--3-33--5-55--------------|

Si te vas...

G|----------------------------------------------------|
D|--9--9--7--4--5--5--4--5--------4--5--7--7--5--7----|
A|--------------------------5--5----------------------|
E|----------------------------------------------------| x2

O quizas...

G|--------------------------------------------------------------------|
D|--------------------------------------------------------------------|
A|--9--9--7--4--5--5--4--5--4--4--2--4--------------------5-55--5-55--|
E|--------------------------------------2-22--3-33--5-55--------------|

Dejando mariposas escapar...

G|----------------------------|
D|----------------------------|
A|--2-22--------5-55----------|
E|--------3-33--------5-55----| x2


G|-------------------|
D|-------------------|
A|--2-22--------5----|
E|--------3-33-------|

LAS PARTES LARGAS PARECEN DIFÍCILES
PERO NO LO SON SOLO SE NECESITA UN POCO DE PRACTICA YA QUE SIGUEN UN ORDEN.
Este fichero es trabajo propio de su transcriptor y representa su interpretación personal de la canción. El material contenido en esta página es
para exclusivo uso privado, por lo que se prohibe su reproducción o retransmisión, así como su uso para fines comerciales.
© LaCuerda.net · aviso legal · privacidad · contacto