Acordes de Guitarra » E »Enanitos Verdes » Cada vez que digo adios (Tab)

Cada vez que digo adios
Enanitos Verdes

  • Letra y Acordes
    G - Am
    G - Em - C - Am - D
    
    G
    Nena no te pongas mal
    Em
    sabes que esto cambiará
    C
    yo luché tanto tiempo
    Am                  D
    por lograr lo que ahora tengo...
    G
    Es muy grande la ciudad
    Em
    si no estas bien convencido
    C
    que quieres llegar bien alto
    Am               D
    aunque sea duro el camino
        C
    
  • Letra y Acordes
    G
    
    G - Em - Am - C - D
    
    G
    Nena no te pongas mal
    
    Em
    sabes que esto cambiará
    
    Am
    yo luché tanto tiempo
    
    C                  D
    por lograr lo que ahora tengo...
    
    G
    Es muy grande la ciudad
    
    Em
    
  • Letra y Acordes
    G
    
    G - Em - Am - C - D
    
    G
    Nena no te pongas mal
    
    Em
    sabes que esto cambiará
    
    Am
    yo luché tanto tiempo
    
    C                  D
    por lograr lo que ahora tengo...
    
    G
    Es muy grande la ciudad
    
    Em
    
  • Tablatura
    INTRO [G] 
    
       G                 Em                C
    e:I-----------------I-----------------I-------I---------I
    B:I-----------------I-----------------I-------I---------I
    G:I---4-0h2-0-------I---4-0h2-0-------I-4-5-5-I-4-5-7-5-I
    D:I-0---------4-5-5-I-0---------4-5-5-I-------I---------I
    A:I-----------------I-----------------I-------I---------I
    E:I-----------------I-----------------I-------I---------I
    
       Am       D
    e:I-------I---------0-0----I
    B:I-------I-----3-------3--I
    G:I-4-5-5-I-2h4---4--------I
    D:I-------I----------------I
    A:I-------I----------------I
    E:I-------I----------------I
    
    
     G
    
  • Tablatura
       E                                  C#m                A          B
    e:----------------------------------I-----------------------------------------I
    B:------9---7-----10---9----7h9-7---I----10----9-------12----10-----9h10-9----I
    G:------------9-------------------9-I------------11------------------------9--I
    D:--9-9---9-----9----9----9---------I-11----11------11----11-----11-----------I
    A:----------------------------------I-----------------------------------------I
    E:----------------------------------I-----------------------------------------I
    
    
    Guitarra 2: (Cuatro veces)
       E                                  C#m                A          B
    e:---0-----0----------0-----0-------I---0-----0------------0------------------I
    B:-----0-----0---0------0-----0-----I-----5-----5---5--------2------------0---I
    G:-------1-----1----------1---------I-------6-----6---------------------4-----I
    D:-2----------------2-----------2/--I---------------------------------4-------I
    A:----------------------------------I-4------------------0--------0-2---------I
    E:----------------------------------I-----------------------------------------I
    
    
    
    
  • Tablatura
        D                          Bm          G       A
    e-----2---0----3--2---0h2p0--------3--2-----5--3----2h3p2--------
    B-------------------3------3------------3----0---0--------3------
    G---2--2----2---------------2-------4----4-----------------0-----
    D--0------0----0-----------------4-------------------------------
    A-------------------------------2-----2-------------0------------
    E-------------------------------------------3--------------------
    
     D
    Nena no te pongas mal,
      Bm
    sabes que esto cambiará,
    G
    yo luché, tanto tiempo,
    Em                   A
    por lograr lo que ahora tengo.
    
    Que es muy grande la ciudad,
    si no estás bien convencido,
    que quieres llegar bien alto,
    
  • Tab p/Bajo
    INTRO:
    G--------------------------------------------------------------
    D--------------------------------------------------------------
    A------------------------3--3-----5----------------------------
    E-3----3h5---3--3--0--0--------5-------------------------------
    
    CANTO:
    G--------------------------------------------------------------
    D--------------------------------------------------------------
    A-------------3--3-----5--------------------------------------- x2
    E-3--3--0--0--------5------------------------------------------
    
    G--------------------------------------------------------------
    D--------------------------------------------------------------
    A-3-33------2-22-8-87------3-33-2-22-/57-77------5-------------
    E------2-22-----------5-55-----------------5-55----------------
    
    G--------------------------------------------------------------
    D--------------------------------------------------------------
    A-------------3--3-----5--------------------------------------- x2
    E-3--3--0--0-----
  • +
    ¡Colabora con nosotros!
    Envíanos tu versión de esta canción
  • Tutorial
    HD
    Cada vez que digo adios - Enanitos Verdes - Como tocar en guitarra acordes
    3:52

Letra de Cada vez que digo adios
Nena no te pongas mal
sabes que esto cambiará
yo luché tanto tiempo
por lograr lo que ahora tengo...
Es muy grande la ciudad
si no estas bien convencido
que quieres llegar bien alto
aunque sea duro el camino
Y tenés que dejar
a la gente que amas y a ella
que te mira con tristeza y alegria
y te dice:
que te vaya bien mi amor
yo te espero
siempre te esperaré...
Por favor no tengas miedo
vos me vas a sostener
y cuando todo sea adverso
pensando en vos voy a estar muy bien
valorar cargar sobre mis hombros
a este mundo que al fín
pesa por la envidia y el odio
de la gente que no puede ser felíz
Y tenés que dejar
a la gente que amas y a ella
que te mira con tristeza y alegria
y te dice:
que te vaya bien mi amor
yo te espero
siempre te esperaré...
uuuuuuuuuuuuu
Tengo que pensar en otra cosa
es hora de cambiar el rumbo
el mundo esta girando locamente
y yo ya estoy cansado de estar tan cuerdo
ooohhhhhh mi amor
(REPETIR CORO)
vos me vas a sostener
vos me vas a sostener



© LaCuerda.net · aviso legal · privacidad · contacto