Acordes de Guitarra » E »Enanitos Verdes » Aún sigo cantando (Tab)

Aún sigo cantando
Enanitos Verdes

Letras, Notas, Punteos, Tablaturas y Acordes de Guitarra (Tabs & Chords)

  • Letra y Acordes
      A                      Amaj7 
      En aquel cajon esta tu foto 
              A7    D
      llenandose de tierra 
      Dm                   A
      hace tanto que no la veo 
             B7          E  D  E
      como a vos, como a vos. 
     
     
      A                       Amaj7
      Te acordas que tiempos aquellos 
          A7       D 
      que tiempos aquellos 
      Dm                          A
      en donde todo era un buen motivo 
             D   E    D
      para decir   te quiero. 
     
     
    
  • Letra y Acordes
    Arpegios en Mi 43231234 (2v)
    
    LA                     DO#m  (Sin Puentes)
    En aquel cajón esta tu foto,
            MIm    FA#m (Sin Puentes)
    llenándose de tierra
    REm                  LA (Sin Puentes)
    hace tanto que no la veo,
            SI         MI RE MI(Sin Puentes)
    como a vos, como a vos.
    LA                      DO#m  (pisando LA nota grave)
    Te acordás que tiempos aquellos,
        MIm      FA#m (pisando LA nota grave)
    que tiempos aquellos
    REm                      LA  (pisando LA nota grave)
    donde todo era un buen motivo,
            MI RE MI  LA    LA9 (pisando LA nota grave)
    para decir    te quiero.
    
    
    
  • Tablatura
     B-----2----2---2-2----
     G----2-2--2-2-2---2---
     D---------------------
     A--0---------0--------
     E---------------------
    
             A                      Amaj7 
            En aquel cajon esta tu foto 
      
     e--------0------0-------------0------0-----
     B-----2----2---2-2---------2----2---2-2----
     G----2-2--2-2-2---2-------1-1--1-1-1---1---
     D------------------------------------------
     A--0---------0----------0---------0--------
     E------------------------------------------
    
                A7                      D
                 llenandose de tierra 
     
     e--------0------0-------------2------2-----
    
  • Tablatura
    Esta rola que transcribo es con una dedicatoria muy especial, a
    todos mis amigos con los que añoramos los ´tiempos aquellos´ donde
    cantabamos esta cancion y esperabamos tiempos mejores, recordarles 
    que aun no nos separamos pese a todo lo sucedido. Recuerden que aun 
    somos los mismos y nunca lo dejaremos de ser, aunque el espejo diga 
    lo contrario. Ya habra oportunidad de juntarnos a cantarla una vez mas.
    Y tambien va para los ´nuevos amigos´con los que tambien la cantaremos.
    Su amigo de siempre Berly ...
    NOTA: La tablatura es muy sencilla, solo necesitas practicarla, si hay
    algun errorcito me avisan ...
    
               INTRO : 
    __
      \ 
    _  1|--------0--------------0------------------------------------------------------
    _) 2|-----2-----2--------2-----2---------------------------------------------------
       3|----2-2---2-2------2-2---2-2--------------------------------------------------
    _  4|------------------------------------------------------------------------------
    
  • Tablatura
                               D                           E
    ... su alma es mi a--limento-o-o-o!...
    
    e---------------------------------------------------------------------
    B--------------------------------------------------7-9h12-9~-9h12-----
    G----------------------------------------------7-9----------------9~--
    D------------------------------------------7-9------------------------
    A---------------------------------------------------------------------
    E---------------------------------------------------------------------
    
    
       C                                                   D      Bb
    
    e-------------------------------------------------------------10-10~--
    B-------------7-8-8h10-8-7-7h8p9--------------------------------------
    G--9-9-9~-7-9--------------------9-7-9-7------------------------------
    D----------------------------------------9-7-9-7----------------------
    A-------------------------------------------------9-7-----------------
    E------------------------------------------------------10~------------
    
    
  • Tablatura
    A         Amaj7       A7           D
    ====xo/  x===xo/  x===xx/   x====x/
    ||||||5  ||||||5  |o||||5   ||||||
    |||o||   ||oo||   |||o||    |o||||5
    |oo|||   |o||||   ||o|||    ||||||
    ||||||   ||||||   ||||||    ||ooo|
    
    E*         D*         Dm          B7
    xx====/  xx====/  x====x/   xx====/
    |||o|o 4 |||o|o 2 |o||||5   |||o|o 2
    ||||o|   ||||o|   ||||o|    ||||||
    ||o|||   ||o|||   ||oo||    ||o|o|
    ||||||   ||||||   ||||||    ||||||
    
    Utilizen esas posiciones de arriba cuando hagan el arpegio de aki abajo.
    Suena mejor con cejilla y guitarra electrica.
    Bueno espero les suene mejor ke las versiones anteriores...
    
      Intro en A
    
    
  • Tab p/Bajo
    Hola, ke tal espero ke les guste esta canción x yo pienso ke va dedicada
    para akellos musikos ke desde niños se han esforzado toda su vida para
    llegar ha ser grandes y pues también tiene letra muy bonita, espero ke
    la disfruten…
    
    Al principio de la canción todavía no hay bajo, solamente es el ritmo
    de la guitarra…
    
    Hasta la parte de “QUE LE HABRÁ PASADO A LA VIDA”….
    
    G|-------------|-------------|-----------|---------------|
    D|-------------|-------------|-----------|--------22—-2--|
    A|-------------|---------5-55|-55--55----|---22-22--55---|
    E|5--55--55--5-|55--55-5-----|-------5-55|55-------------|
    
    Te acordas del flaco espinetta…
    
    G|-------------|-------------|-----------|----------------|
    D|-------------|-------------|-----------|-------22-------|
    A|-------------|---------5-55|-55--55----|----55----------|
    E|5--55--55--5-|55--55-5-----|-------5-55|-55-------55-55-|
    
    Pero como han cambiado los tiempos..
    
    G|--------------|-------------|------------|--------------------|
    D|
  • +
    ¡Colabora con nosotros!
    Envíanos tu versión de esta canción
  • Tutorial
    Aun sigo cantando - Enanitos verdes - Como tocar en guitarra acordes
    5:34

Letra de Aún sigo cantando
En aquel cajon esta tu foto
llenandose de tierra
hace tanto que no la veo
como a vos, como a vos.


Te acordas que tiempos aquellos
que tiempos aquellos
en donde todo era un buen motivo
para decir te quiero.


Que le habra pasado a la vida
que sin quererlo ya ni me acuerdo
cuando con mi viejo iba a la cancha
a ver aquel atletico.


Te acordas del flaco Espinetta
cuando cantaba, todas las hojas son del viento
hay toda nuestra filosofia
que era solo ser rockero.


Pero como han cambiado los tiempos
todos luchan por mantener sus puestos
hay muchos que ahora son Ingenieros
que pocos quedaron rockeros.


Pero yo aun sigo cantando
y lo voy a seguir haciendo
una leccion me dio la vida
tienes que hacer lo que el corazon diga.


Y ayer quizas pensando en tu foto
por la calle te encontre andando
que poco ha cambiado nuestra onda


Espero que el tiempo ahora no borre
a esta gente que tanto amo (todos ustedes)
Por que sin ustedes no valgo nada
Su alma es mi alimento.



© LaCuerda.net · Aviso Legal · Privacidad