Acordes de Guitarra » E »Els Pets » Pau (Tab)

Pau
Els Pets

Letras, Acordes y Tabs para Guitarra, Bajo y Ukulele

  • MI                 SI
    Pau treballa i estudia,
                     LA
    repassa apunts i llibres
                          SI
    sota el taulell, mig d'amagat.
    
    MI              SI
    d'una petita oficina
                    LA
    on es guanya la vida
                     SI
    amb un contracte temporal.
    
    MI                  SI
    Pau comparteix la nevera
                        LA
    amb dos companys de feina
                      SI
    i un marroquí mig il.legal
    
  • “Intro”  (Pau comparteix la nevera)
    G|--------|--------|--------|--------|--------|--------|--------|--------|
    D|--------|--------|--------|--------|--------|--------|--------|--------|
    A|--------|--------|--9-----|--------|--7-----|--------|--9-----|--9-----|
    E|0000----|--------|77-7----|--------|55-5----|--------|77-7----|77-7----|
    
    Estrofa (i a l’habitació somia) (Pau té proves cada dia)
    G|--------|--------|--------|--------|--------|--------|-------|---------|
    D|--------|--------|--------|--------|--------|--------|-------|---------|
    A|------7-|------7-|--9---9-|--9---9-|--7---7-|--7---7-|-9---9-|---9---9-|
    E|0000-0-0|0000-0-0|77-7-7-7|77-7-7-7|55-5-5-5|55-5-5-5|77-7-7-7|77-7-7-7|
    
    (Pau es com la resta) (Pau no és cap heroi)
    G|--------|--------|--------|--------|--------|--------|--------|--------|
    D|7-7-7-7-|7-7-7-7-|9-9-9-9-|9-9-9-9-|--------|--------|--------|--------|
    A|-7-7-7-7|-7-7-7-7|-9-9-9-9|-9-9-9-9|--------|--------|-7-7-7-7|-7-7-7-7|
    E|--------|--------|--------|-
  • +
    ¡Colabora con nosotros!
    Envíanos tu versión de esta canción

Letra de Pau
Pau treballa i estudia,
repassa apunts i llibres
sota el taulell, mig d'amagat.
d'una petita oficina
on es guanya la vida
amb un contracte temporal.
Pau comparteix la nevera
amb dos companys de feina
i un marroquí mig il.legal
i a l'habitació somia
amb una gironina
que viu al bloc que hi ha al davant.
Pau és com la resta
quan beu molt molesta
les cambreres dels locals,
però al mateix temps es mou,
vol canviar el món.
Pau no espera des de la trinxera,
Pau té clar que no vol renunciar.
Pau no es queda resignat al terra,
Pau demà tornarà a començar.
Pau té proves cada dia
de la pornografia que escampa
el món neoliberal.
Pau hi ha cops que desespera
però sap que no hi ha treva
en un combat tan desigual.
Pau no és cap heroi,
no té vocació
de ser carn de santoral,
però per dormir tranquil
ha de seguir.
Pau no espera des de la trinxera,
Pau té clar que no vol renunciar.
Pau no es queda resignat al terra,
Pau demà tornarà a començar.
6- | 3(*4) 0 | 2 | 0 3(*4) 0 | - | 3(*4) 0 | - | - |
Pau no espera des de la trinxera,
Pau té clar que no vol renunciar.
Pau no es queda resignat al terra,
Pau demà tornarà a començar.




[Pau chords][Pau cifra]
© LaCuerda.net · aviso legal · privacidad · es · en · pt · contacto
DINAMICO