Acordes de Guitarra » D »Dos Minutos » Lado Oscuro (Tab)

Lado Oscuro
Dos Minutos

Letras, Acordes y Tabs para Guitarra, Bajo y Ukulele

  • *Intro: A E A E
           (F# E D)x3 F# E D(machacado)
    
                      A
    Voy perdiendo el rumbo,
                   E*
    no se a donde voy.
                A
    Perdí la cabeza,
                    E
    no se donde quedó.
    
                  A
    Sombra ya no tengo,
                   E
    ella me abandonó.
                 A
    Todo es muy raro,
              E      E-E
    y es lógico.
    
  • e|---------------------------------------------------|
    B|---------------------------------------------------|
    G|-------------------------------------------------7-|
    D|----------7------------9------------7------------7-|
    A|-5-4-5-4--7---5-4-5-4--9---5-4-5-4--7---5-4-5-4--5-|
    E|----------5------------7------------5--------------|
    
    F# E D x2
    
       F#   E    D              F#   E    D
    e|-----------------------|--------------------------|
    B|-----------------------|--------------------------|
    G|------5----------------|------5-------------------|
    D|5-7-8---8-7-8-7-5------|5-7-8---------------------|
    A|------------------8-6--|--------6-6-6-6-6-6-6-6-6-|
    E|-----------------------|--------------------------|
    
                      A
    Voy perdiendo el rumbo,
                   E*
    
  • +
    ¡Colabora con nosotros!
    Envíanos tu versión de esta canción

Letra de Lado Oscuro
Voy perdiendo el rumbo,
no se a donde voy.
Perdí la cabeza,
no se donde quedó.
Sombra ya no tengo,
ella me abandonó.
Todo es muy raro,
y es lógico.
Hoy perdí el rumbo.
Es mi lado oscuro.
Hoy perdí el rumbo.
Es mi lado oscuro.
Voy perdiendo el rumbo,
no se a donde voy.
Perdí la cabeza,
no se donde quedó.
Sombra ya no tengo,
ella me abandonó.
Todo es muy raro,
y es lógico.
Hoy perdí el rumbo.
Es mi lado oscuro.
Hoy perdí el rumbo.
Es mi lado oscuro.
Fin:




[Lado Oscuro chords][Lado Oscuro cifra]
© LaCuerda.net · aviso legal · privacidad · es · en · pt · contacto
DINAMICO