Acordes de Guitarra » D »Los Doltons » El ultimo beso (Tab)

El ultimo beso
Los Doltons

Letras, Acordes y Tabs para Guitarra, Bajo y Ukulele

  •                    DO               LA 
          Por qué el señor me la quitó?
          FA                       SOL
            Se ha ido al cielo y para poder ir yo
                  DO                  LA 
            debo también ser bueno para estar con mi amor.   
              FA                          SOL         DO
    
    
      Ibamos los dos al anochecer
         DO              LA 
      oscurecia y no podía ver
    FA                 SOL    
      yo manejaba iba a más de cien
         DO             LA        
      prendí las luces para leer
    FA                   SOL
      habia un letrero de desviación
        DO                      LA  
      el cual pasamos sin precaución
    
  •     RE                SIm        SOL
    Por qué el señor me la quitó?
                 LA               
    Se ha ido al cielo y para poder ir yo
          RE                  SIm
    debo también ser bueno para estar con mi amor.   
       SOl                         LA          RE LA
    
    
    Ibamos los dos al anochecer
        RE              SIm    SOL
    oscurecia y no podía ver
                       LA    
    yo manejaba iba a más de cien
             RE        SIm       SOL   
    prendí las luces para leer
                LA                  
    habia un letrero de desviación
        RE               SIm      SOL
    el cual pasamos sin precaución
    
  •   E                C#m
    Por qué se fué? y por qué murió?
     A                B
    Por qué el señor me la quitó?
    E                  C#m
    Se ha ido al cielo y para poder ir yo
      A                  B                  E
    debo también ser bueno para estar con mi amor.
    
    
     E              C#m
    Ibamos los dos al anochecer
     A             B
    oscurecia y no podía ver
     E             C#m
    yo manejaba iba a más de cien
      A                  B
    prendí las luces para leer
     E                C#m
    habia un letrero de desviación
    
  • Intro
    E|-------|-----|-------|-------|-----|--------|
    A|--16/7-|-4---|-431---|-----4-|-----|-----6--|
    D|-------|---6-|-----3-|-234---|-456-|-6-53---|
    G|-------|-----|-------|-------|-----|--------|
    
    E|------|-------|-------|-----|--------|
    A|--4---|-431---|-----4-|-----|-----6--|
    D|----6-|-----3-|-234---|-456-|-6-53---|
    G|------|-------|-------|-----|--------|
    
    Por que se fue
    E|-------|--------|--------|-----------|
    A|--4----|-431----|------4-|------6-6--|x2
    D|----66-|-----33-|-234-4--|-456-6-----|
    G|-------|--------|--------|-----------|
    
    amor
    E|-----4------|
    A|--4-4--3-4--|
    D|------------|
    G|------------|
    
    Ibamos los dos
    E|---------|--------|--------|-----------|
    A|--234----|-431----|------4-|------6-6--|
    D|------66-|-----33-|-234-4--|-456-6-----|
    G|---------|--------|--------|-----------|
    
    yo manejaba
    E|-------|--------|--------|-----------|
    A|--4----|-431----|------4-|------6-6--|x3
    D|----66-|-----33-|-234-4--|-456-6-----|
    G|-------|--------|--------|-----------|
    
    fue a dar
    E|-----
  • INTRO
    
    1ra G|---------------------------------|---------------------------------|
    2da D|---------------------------------|---------------------------------|
    3ra A|---------------------------------|-------------------------15s-----|
    4ta E|---------------------------------|---------------------------------|
    
    G|---------------------------------|---------------------------------|
    D|-------------7-------------------|-------------4-----------2---4---|
    A|-5-----------------------5---4---|-2-------------------------------|
    E|---------------------------------|---------------------------------|
    
    G|---------------------------------|---------------------------------|
    D|-5-----------------------5---6---|-7-----------7-------5---4---2---|
    A|-------------5-------------------|---------------------------------|
    E|---------------------------------|---------------------------------|
    
    G|---------------------------------|---------------------------------|
    D|-------------7-------------------|-------------4-
  • +
    ¡Colabora con nosotros!
    Envíanos tu versión de esta canción

Letra de El ultimo beso
Por qué el señor me la quitó?
Se ha ido al cielo y para poder ir yo
debo también ser bueno para estar con mi amor.
Ibamos los dos al anochecer
oscurecia y no podía ver
yo manejaba iba a más de cien
prendí las luces para leer
habia un letrero de desviación
el cual pasamos sin precaución
muy tarde fué y al enfrenar
el carro volco y hasta el fondo fué a dar.
(REPT. 1)
Al vueltas dar yo me salí
por un momento no supe de mi
al despertar hacia el carro corrí
y aun con vida la pude hallar
al verme lloró y me dijo adios
allá te espero donde está el señor
él a querido separarnos hoy
abrazame fuerte porque me voy
al fin la abraze en mis brazos se sonrió
después de un suspiro en mis brazos quedó.
(REPT. 1)




[El ultimo beso chords][El ultimo beso cifra]
© LaCuerda.net · aviso legal · privacidad · es · en · pt · contacto