Acordes de Guitarra » D »División Minúscula » Betty Bop (Tab)

Betty Bop
División Minúscula

Letras, Acordes y Tabs para Guitarra, Bajo y Ukulele

  • |---------------------------------------------------------------|
    |---------------------------------------------------------------|
    |---------------------------------------------------------------|
    |----------------7-7-6---7-7-6----6-7-6---6-7-6-----------------|  Se repite
    |-7-7-6--7-7-6---0-0-0---0-0-0----4-4-4---4-4-4----6--9--7---9--|  hasta antes
    |-0-0-0--0-0-0-------------------------------------4-9---5-9----|  de la estrofa
    
    Pisadas antes de la estrofa , E ,A ,C#m ,B ,A
    
    E                A                      C#m 
    Tengo todo para comprobar caja llena de recuerdos
               G#    A 
    que nunca pude quemar.
    E                 A                                C#m
    No dijiste a que querias jugar solo se que en este juego
                G#    A     B, A, G#
    a nadie le toco ganar.
    
    E                       B A,G#
    Se que haz de pensar en mi,     
    
  • INTRO: SI FA# DO#  Y MI X3
    LUEGO: SI FA# DO#M MI SI FA# DO#M Y MI PERO TRANSPORTADO X2 LUEGO MI
    LE PUSE MIT. (MI TRANSPORTADO)  A LOS Q LLEVA
    Y LO Q TIENE ___ GUION BAJO ES DEL BAJO
    NO LO TOQUEN
    
    SI               FA#
    TENGO TODO PARA COMPROBAR
                     DO#               MI
    Q ME LLENAS DE RECUERDOS Q NUNCA PUDE QUEMAR
    SI                  FA#
    NO DIJISTE A Q QUERIAS JUGAR PERO
                  DO#               MI        SI FA# DO# 
    SOLO EN ESTE JUEGO A NADIE LE TOCO GANAR
    
    
    //PRE-CORO//:
                           MI SI FA#
    SE Q HAS DE PENSAR EN EL
                         DO#M MI SI
    
  • E I--------------------------------------0----------0---------
    A I----------------------------------------0----------0-------
    B I-9-98------------------------------------------------------      X 3
    G I-9-99- x2 7-76- x2 -6-76-- x 2 --66----------77------------
    A I-7-77-----0-00------4-44---------66----------77------------
    E I---------------------------------44----------55------------
    
    
    Guitarra 2 (igual que la guitarra 1)
    Empieza con la bateria y sigue con la guitarra 1
    
    Coninua Intro 2
    Guitarra 1 y 2
    E I-----------------------------------------------------------------------
    B I-----------------------------------------------------------------------
    G I-----------------------------------------------------------------------
    D I-----------------------------44444-----------------------------------x 2
    A I-7-7-76--7-7-7-76---7-7-7-76-------7-7-76--7-7-7-76---7-7-7-76-99999---
    E I-----------------------------------------------------------------------
    
    
  • bueno aki corrigiendo algunos errores que segun yo tenia esta tab de edgar
    aki mi mail para cualquier rola que quieran music_love_22@hotmail.com
    
    Intro 0:09
    ----------------------------------------
    ----------------------------------------
    -7—-7-7-7--7—-7-7-7---------------------
    ---------------------5—-5-5-5--5—-5-5-5-
                                              X2
    ---------------------------------------
    ---------------------------------------
    -4—-4-4-4—-4--4-4-4--------------------
    --------------------4--4-4-4--5--5-5-5-
    
    
    Intro 2 0:26
    --------------------------------------------------------
    --------------------------------------------------------
    -7—-7-7-7-7---------------4—-4-4-4-4-------------------- X2
    --------------5--5-5-5-5---------------7—-7-7-7-7-------
    
    
    BREAK 1 0:42
    --------------------------------------------------------
    --------------------------------------------------------
    --------------------------------------------------------
    --5-5-5-5-5-5-5-5-5-5-5-5----7-7-
  • UNA DE LAS MEJORES CANCIONES DE DIVISION AKI LA TIENEN OJALA LA DISFRUTEN
    No se si esten bien marcados los tiempos pero ahí esta.
    Un saludo para los de Panke y los Asteroides.
    Comienza la guitarra, u cuando entra la bataca entra el bajo 
    
    G------------------------------------------------------------------
    D------------------------------------------------------------------   X2
    A-7-7-7-7-7-7-------------4-4-4-4-4-4------------------------------
    E-------------5-5-5-5-5-5--------------4-4-4-4----5-5-5-5----------
    
    G------------------------------------------------------------------
    D------------------------------------------------------------------  X4 
    A-7-7-7-7-7-7-------------4-4-4-4-4-4------------------------------
    E-------------5-5-5-5-5-5---------------7-7-7-7-7-7----------------
    
    
    G------------------------------------------------------------------
    D------------------------------------------------------------------ 
    A-----------------------------------------------
  • +
    ¡Colabora con nosotros!
    Envíanos tu versión de esta canción

Letra de Betty Bop
Pisadas antes de la estrofa , E ,A ,C#m ,B ,A
Tengo todo para comprobar caja llena de recuerdos
que nunca pude quemar.
No dijiste a que querias jugar solo se que en este juego
a nadie le toco ganar.
Se que haz de pensar en mi,
Todo lo que hice por ti
Se que haz de pensar en mi
pero para que esperar si ya no queda nada.
Ya no queda nada
Tengo el mejor recuerdo en mi (recuerdo en mi)
no quiero dejarlo atras ,no quiero dejarlo atrás
Tengo el mejor recuerdo en mi (recuerdo en mi)
no quiero dejarlo atras ,no quiero dejarlo atrás
pues esta tarde volvio el dolor.
Dime para que te he de escribir tantas cartas si aunque quieras
se que no me vas a abrir
Esa parte de tu corazon que hoy el miedo ha cerrado,
pero ayer si la pude abrir .
Se que haz de pensar en mi
todo lo que hice por ti
Se que haz de pensar en mi
pero para que esperar si ya no queda nada.
Ya no queda nada
Tengo el mejor recuerdo en mi (recuerdo en mi)
no quiero dejarlo atras ,no quiero dejarlo atrás
Tengo el mejor recuerdo en mi (recuerdo en mi)
no quiero dejarlo atras ,no quiero dejarlo atrás
pues esta tarde volvio el dolor.
Mejor vamos a platicar tal vez el dolor asi sanará
o dime si hay otra solucion
volvió el dolor...
Termina con el intro.
www.nuckleon.cjb.net
DEDICADA A MI BANDA NÚCKLEON ,A MIS CUATES , Y A TODOS
LOS QUE HAN APOYADO A NÚCKLEON , GRACIAS , F.JAVIER.




[Betty Bop chords][Betty Bop cifra]
© LaCuerda.net · aviso legal · privacidad · es · en · pt · contacto
DINAMICO