Acordes de Guitarra » D »Divididos » Voodoo Chile (Tab)

Voodoo Chile
Divididos

Letras, Acordes y Tabs para Guitarra, Bajo y Ukulele

  • RE - SOL - LA:
    ESTA ES LA TONALIDAD DEL ALBUM "Acariciando Lo Áspero"
    
    MI - LA - SI:
    En El CD "Viveza Criolla" La Canción Está En "Mi"
    En Otra Transcripción
    Dejo Detallada La Escala En Esta Tonalidad.
    
    
    INTRO / WAH
    
    E|-----------------------------------------|--------------------|
    B|-----------------------------------------|--7---------7--7--5-|
    G|--7------------5-------------------------|-----5---7----------|
    D|-------5-s-7-----------3--3---5-p-3------|--------------------|
    A|---------------------------------------5-|--------------------|
    E|-----------------------------------------|--------------------|
    
    
    E|-----------------------------------------|--------------------|
    
  • RE - SOL - LA:
    ESTA ES LA TONALIDAD DEL ALBUM "Acariciando Lo Áspero"
    
    MI - LA - SI:
    En El CD "Viveza Criolla" La Canción Está En "Mi"
    En Otra Transcripción
    Dejo Detallada La Escala En Esta Tonalidad.
    
    Suerte con el tema ! ... aNa 77 !
    
    MaLDiToS SeaN !
    www.fotolog.com/malditossean11
    www.malditossean.8k.com
    
    
    INTRO / WAH
    
    E|-----------------------------------------|--------------------|
    B|-----------------------------------------|--7---------7--7--5-|
    G|--7------------5-------------------------|-----5---7----------|
    
  • MI - LA - SI:
    ESTA ES LA TONALIDAD DEL ALBUM EN VIVO "Viveza Criolla"
    
    RE - SOL - LA:
    En El CD "Acariciando Lo Áspero"
    La Canción Está En "RE"
    En Otra Transcripción Dejo Detallada
    La Escala En Esta Tonalidad.
    
    Suerte con el tema ! ... aNa 77 !
    
    MaLDiToS SeaN !
    www.fotolog.com/malditossean11
    www.malditossean.8k.com
    
    
    INTRO / WAH
    
    E|-----------------------------------------|--------------------|
    B|-----------------------------------------|--9---------9--9--7-|
    
  • Voodoo Child - Divididos
    
    Afinacion: D A D G
    
    Intro
    G|--------|----------|----------|---------|
    D|--------|----------|----------|---------| 
    A|--------|----------|-.--------|---------| 
    D|-3\0----|-0-3\0~---|-3p0~~~---|-5/19\---|
    
    Verso
    G|------------------|-------------------| )  
    D|------------------|-------------------| ) repetir
    A|------------------|-------------03555-| ) 3 veces
    D|-0-002-00-0002222-|-0-0022-0-023------| )
    
    G|-----------------|-----------------|-----------------|-----------------|
    D|-----------------|-----------------|-----------------|-----------------|
    A|-----------------|-----------------|-----------------|-----------------|
    D|-0-000-00-000000-|-000-002-00-0002-|-000-002-00-0002-|-000-002-00-0002-|
    
    G|------------------------------|------------------|-------------------|
    D|------------------------------|------------------|-------------------|
    A|------------------------------|------------------|-------------03555-|
    D|-000-000-00-000/121212
  • +
    ¡Colabora con nosotros!
    Envíanos tu versión de esta canción

Letra de Voodoo Chile
ESTA ES LA TONALIDAD DEL ALBUM "Acariciando Lo Áspero"
En El CD "Viveza Criolla" La Canción Está En "Mi"
En Otra Transcripción
Dejo Detallada La Escala En Esta Tonalidad.
BASE EN 'RE'
2da B|--2--2--2--2--|--2--2--2--2--2--2--|
3ra G|--2--2--2--2--|--2--2--2--2--2--0--|
4ta D|--0--0--3--0--|--0--0--3--0--0--0--|
DESPUÉS DE LA BASE DA PIE A LA CANCIÓN:
MELODÍA
Well, I up there, to the mountain..........
( * 2)
I up there to the mountain................
Well, if you wanna feel.......
'Cause I'm Vodoo Chile,
Lord knows I'm a voodoo chile, baby!
IMPROVISA EN ESCALA PENTATONICA DE RE
INTERCALANDO CON EL ACORDE DE:
E|--0--|
B|--5--|
G|--5--|
D|--4--|
A|--5--|
E|--0--|
--REPITE TODO DE VUELTA--
FINAL:
h: Hammer On (Ligado Ascendente)
p: Pull Off (Ligado Descendente)
Ligadura: aprieta y suelta la cuerda
al aire, con el 3er dedo, sin tocar con la púa
en la mano derecha
Estiradas: [(1t)]
Se hacen levantando la cuerda,
con el 3er o 2do dedo
hasta aumentar un tono, y vuelve a bajar.




[Voodoo Chile chords][Voodoo Chile cifra]
© LaCuerda.net · aviso legal · privacidad · es · en · pt · contacto