Acordes de Guitarra » D »Divididos » Un alegre en este infierno (Tab)

Un alegre en este infierno
Divididos

Letras, Acordes y Tabs para Guitarra, Bajo y Ukulele

  •           D            C       G         l     D
    E--------0-1-3-1---l-------l----1----    l  E--0----
    B -----3---------3-l----1--l----1----    l  B--3----
    G----2-------------l----0--l----0---- X3 l  G--2----
    D--0---------------l--2----l---------    l  D--0----
    A------------------l3------l--2------    l
    E------------------l-------l3--------    l
    
    Idem intro:
    A donde va esta ciudad
    dicen que se va a apagar
    que quedó del sueño aquel
    quien va a ser rey de esta soledad
    
    [C5 B5 A5 B5 A5 A5]
    D                    C    G
     Un pueblo de egos solos
    D                    C    G
     buscándose en la oscuridad
    D                    C    G
    
  • Intro:  [Dm  C  G]       (con guitarra acústica)
    ------  [Dm  C  G  C] x2 (con guitarra eléctrica)
    
      Dm         C      G
    ¿Adónde va esta ciudad?
    Dm        C           G
    Dicen que se va a apagar.
     Dm         C           G
    ¿Qué quedo del sueño aquel?
      Dm                     C       G
    ¿Quién va a ser rey de esta soledad.
    
    [C  Bm  Am  Bm  Am  Dm]
    
                      C      G
    Un pueblo de egos solos,
    Dm                     C   G
       buscándose en la oscuridad.
    Dm                  C       G
       A estos hombres tristes,
    
  • Bueno aca les mando la super correccion de la otra tablatura q mande.
    
    INTRO: guitarra..
    
    Riff 1:A              Riff 2:B
    |------------------|--------------------------------------|
    |------------------|---------7-10-7---9---7---------------|
    |---5--3--0--2--3--|--5---7---------7---7---5-------------|
    |------------------|----------------------------3-5-3-0---|
    
    Riff 3:C
    |-------------|
    |-------------|
    |-5-7--3-5----|
    |-----------5-|
    
    Riff 4:D
    |--------------------------------------------|
    |---------7-10-7-----------------------------| x2
    |--5---7---------7---17-18-19-20-20-19-18-17-|
    |--------------------------------------------|
    
    |---------------------------------------|  |-----------------|
    |---------------------------------------|x2|-----------------|
    |-7/14-14/7--7/14-14/7--14141414141414--|  |--7/14-7/14-7/14-|
    |---------------------------------------|  |-----------------|
    
    Cuando dice 'futuros y pasados' hace una modificacion en el Riff 2:
    
    |-----------
  • +
    ¡Colabora con nosotros!
    Envíanos tu versión de esta canción

Letra de Un alegre en este infierno
Idem intro:
A donde va esta ciudad
dicen que se va a apagar
que quedó del sueño aquel
quien va a ser rey de esta soledad
Un pueblo de egos solos
buscándose en la oscuridad
a estos hombres tristes
por favor no dejen de amar
Por aca no pasarán
el hambre que tu sueño robó
simplemente imagina
un alegre en este infierno
Futuros y pasados
te roban el presente
un mundo sin sopapa
a que hora vuelve la luz?
U O H U O H, U O H U O H
U O H U O H, U O H U O H x2
U O H U O H, U O H U O H
Un pueblo de egos solos
buscándose en la oscuridad
Un pueblo de egos solos
buscándose en la oscuridad
Que no roben tus sueños
y por acá no pasarán.




[Un alegre en este infierno chords][Un alegre en este infierno cifra]
© LaCuerda.net · aviso legal · privacidad · es · en · pt · contacto