Acordes de Guitarra » D »Divididos » Pepe Lui (Tab)

Pepe Lui
Divididos

Letras, Acordes y Tabs para Guitarra, Bajo y Ukulele

  • Intro: (RE-SIm SOL) x4
    
    
       RE - SIm    SOL
    Va Pepe Lui
                RE  -  SIm   SOL
    por la estación Eduardo VI
       RE  -  SIm        SOL
    va Pepe Luiii iii iii
                 RE  -  SIm     SOL
    con bocho e' radiograbador.
    
       RE  -  SIm       SOL
    La suspensiooo ooo ooon
                RE  -  SIm      SOL
    que el pelo pide al caminar,
       RE  -  SIm    SOL
    resortes de un andar
               RE  -  SIm      SOL
    clavado en los setentaaa aaaaa.
    
  • Intro: RE SIm SOL
    
    A)
       RE    SIm
    Va Pepe Lui
    SOL               RE       SIm   SOL
       por la estacion Eduardo VI
       RE    SIm   SOL
    va Pepe Lui
                      RE    SIm
    con bocho e' radiograbador
    
    A)
    la suspension
    que el pelo pide al caminar
    resortes de un andar
    clavado en los setenta
    
    B)
    FA#             SOL
    
  • Intro: (DO LAm FA) x 4 
    
       DO     LAm 
    Va Pepe Lui
    FA                  DO       LAm
       por la estacion Eduardo VI
    FA        DO    LAm
         va Pepe Lui
    FA                  DO      LAm       FA   
       con bocho e' radiograbador
    
    LA suspension
    que el pelo pide al caminar
    resortes de un andar
    clavado en los setenta
    
    MI             FA
     Dos de cristal en la bolsa
    MI             FA          
     más rapido que un rayo
    
  • E|----------------------|-----------------------------------------------|
    B|--9/3-3-3-2-2-0-0-----|-----------------------------------------------|
    G|------------------2-2-|-2/4-4/7-7/9-9/11-11/14(mantiene)/11-11/9-9/7--|
    D|----------------------|-----------------------------------------------|
    A|----------------------|-----------------------------------------------|
    E|----------------------|-----------------------------------------------|
    
    E|--------------------------|
    B|--3-3-2-2-0-0-------------|
    G|--------------2-2-2/4/2-2-|
    D|--------------------------|
    A|--------------------------|
    E|--------------------------|
    
    Larga con estos acordes el rasgueo: D - Bm - G - G
    Sigan la canción para realizar los cambios en tiempos precisos.
    
    A)
       D       Bm  G
    Va Pepe Lui
    
  • Intro
    G|----------------------|--------------------------|
    D|----------------------|--------------------------|
    A|-5--5---------------3-|-5--5-------------------3-|
    E|------7--7-5-3--3-5---|------7--7-6-5-4-3--3-5---|
    
    Versos
    G|----------------------------|x8
    D|----------------------------|
    A|-5--5---------------------3-|
    E|------7--7-6-5-4-3--5-3-5---|
    
    Coros
    G|-----------------|---------|
    D|-----------------|---------|
    A|-----------------|---------|
    E|-2--1-2-3--2-3-5-|-4-3-2-1-|
     |   CUATRO VECES  |
  • Pista: 5
    Tiempo: 04'07"
    
    
    Intro (el bajo empieza 00'24")
    G|------------------------|-------------------------|
    D|--------------5-----5-7-|-----------5h7h5-----5-7-|
    A|-5---5----5-7-----7-----|-5-----5h7---------7-----|
    E|-------7----------------|-----7-------------------| (X1)
    
    Va Pepe Lui... (00'34")                 _
    G|-------------------------|            |
    D|---------------------5-7-|            |
    A|-5-------5-7-------7-----|            |
    E|-------7-----------------| (X1)       |Va Pepe Lui
                                            |Por la estación Eduardo VI
    G|-------------------------|            |Va Pepe Lui
    D|-----------5h7h5-----5-7-|            |Con bocho de radio grabador
    A|-5-----5h7---------7-----|            |La suspensión
    E|-----7-------------------| (X6)       |Que el pelo pide al caminar
                                            |Resortes de un andar
    G|-------------------------|            |Clavado en los setenta.
    D|-----------5h7h5-5---5-7-|            |
    A|-5-5---5h7---
  • +
    ¡Colabora con nosotros!
    Envíanos tu versión de esta canción
  • Tutorial
    HD
    Explicado - Como tocar "Pepe Lui" de Divididos en el bajo tutorial#330
    11:49

Letra de Pepe Lui
Va Pepe Lui
por la estación Eduardo VI
va Pepe Luiii iii iii
con bocho e' radiograbador.
La suspensiooo ooo ooon
que el pelo pide al caminar,
resortes de un andar
clavado en los setentaaa aaaaa.
Dos de cristal en la bolsa,
más rápido que un rayo,
un mundo en miniaturas
revistas de rooo oock,
pero de rock nacional. Uuuuu uuuuu uuuuu uuuuu uuuuuu
Rey del ping-pong,
pero mas rey es del pom-pom.
El sapo ahiii iii iii, en su latita de Nesquik.
Un artesaaa aaa aano, hasta en su manera de miraaaaaar.
Aquel mueble de su vieja,
cajones de los misterios,
melodias de pescado
siempre sonaraaaaaaaaaan,
en lo del flaco Pepe Lui
uuuuuu uuuuuuuu uuuuuu uuuuu
en lo del flaco Pepe Lui,
uuuuuu uuuuuuuu uuuuuu uuuuu
en lo del flaco Pepe Lui.... Pepe, Pepe Lui.




[Pepe Lui chords][Pepe Lui cifra]
© LaCuerda.net · aviso legal · privacidad · es · en · pt · contacto