Acordes de Guitarra » D »Divididos » Light my fire (Tab)

Light my fire
Divididos

Letras, Acordes y Tabs para Guitarra, Bajo y Ukulele

  • Intro: Am F#m7 X 2
    (El punteo viene pronto, ya lo se en realidad me falta transcribirlo, 
    tambien el solo)
    
    
    Am                           F#m7
    You know that it would be untrue
    Am                          F#m7
    you know that it would be a lie
    Am                   F#m7 
    if i was to say to you
    Am                          F#m7
    girl we couldn't get much higher
    
    Estribillo
    
    G           A            D
    Come on baby light my fire
    G           A            D
    Come on baby light my fire
    
  • E|-----------------------------------------------13-10---------------|
    B|-12-------12--15-13--12-----------10-------10--------13-11-10-11-13|
    G|----12h14----------------14--12------10h12-------------------------|
    D|-------------------------------------------------------------------|
    A|-------------------------------------------------------------------|
    e|-------------------------------------------------------------------|
    
    
    
    E|----------------------------------------|
    B|----------13-16-14-13-------15(X8)------|
    G|-13-13h15-------------15-13-------14(X8)|
    D|----------------------------------------|
    A|----------------------------------------|
    e|----------------------------------------|
    
        Am                      F#m
    You know that it would be untrue
        Am                     F#m
    You know that I would be a liar
    
  • Intro
    1/----------------------------------------------------
    2/----------------------------------------------------
    3/---5--3-----------3--1---1-------5-(x10)------------
    4/-3--------5--3--1-----------4-5----------5-(x5)-----
    
    Puente
    1/-----5-------------------------------
    2/-------7-5-4------4-2---2-4----------
    3/----------------------4--------------
    4/--5------------2---------------------
    
    Estribillo
    
    1/-------------------------------------
    2/--------------------4/5-4------------
    3/---2--5----4--7--5--------5/4-5------
    4/-3-------5---------------------------
    
    1/-------------------------------------
    2/--------------------4----------------
    3/---2--5----4--7--5----5--2-----------
    4/-3-------5---------------------------
    
    1/-------------------------------------
    2/-------------------------------------
    3/---2--5----4--7--5--7-(x10)----------
    4/-3-------5---------------------------
    
    Punteo
    En esta parte el bajo sigue el ritmo de la bateria, 
    acá te pongo los t
  • +
    ¡Colabora con nosotros!
    Envíanos tu versión de esta canción
  • Tutorial
    HD
    Como tocar Enciende mi fuego - Light my fire de Divididos en guitarra (tutarras.com.ar)
    23:42

Letra de Light my fire
(El punteo viene pronto, ya lo se en realidad me falta transcribirlo,
tambien el solo)
You know that it would be untrue
you know that it would be a lie
if i was to say to you
girl we couldn't get much higher
Estribillo
Come on baby light my fire
Come on baby light my fire
Try to set the night on fire
The time to hesitate is through
no time to wallow in the mire
try now we can only loose
and our love become a funeral pyre
Estribillo
Come on baby light my fire
Come on baby light my fire
Try to set the night on fire
try to set the night on fire
try to set the night on fire
Light My Fire.....(Fire.............)
Uhhhhhhhhhhhhhhhhhhhhhhhhh!
Come on baby light my fire
Come on baby light my fire
Try to set the night on fire
try to set the night on fire
try to set the night on fire X 2
Fire, fire, fire, fire, woo u yeah!!!!!!!!!!!!!!




[Light my fire chords][Light my fire cifra]
© LaCuerda.net · aviso legal · privacidad · es · en · pt · contacto
DINAMICO