Acordes de Guitarra » D »Divididos » La Gente Se Divierte (Tab)

La Gente Se Divierte
Divididos

Letras, Acordes y Tabs para Guitarra, Bajo y Ukulele

  • e|-----------------------------------|----------------------------|
    B|-------5----5-------x--------------|-------5--5----5/--5--5--5--|
    G|----4--4h6--4h6p4---x--------------|----x--4--4h6--4/--6--6--6--|
    D|----6-------------6---7--7----7----|----x--6--6----6/--7--7--7--|
    A|----7-----------------7--7h9--7----|----------------------------|
    E|--0-----------------------------9--|--0-------------------------|
    
    e|---------------------------------|---------------------------||
    B|--x--5--5----5/------------------|----5--5-------x--5--5--5--||
    G|--x--4--4h6--4/------------------|----4--4h6--4/----6--6--6--||
    D|-----------------x--7--7----7----|----6--6----------7--7--7--||
    A|-----------------x--7--7h9--7----|---------------------------||
    E|------------------------------9--|--0------------------------||
    
    Estrofa 1
    e|-----4-----5-----|--4--4------------------------|
    B|--5--5--x--5--5--|--5--5-----x------------------|
    G|--4--4--x--6--6--|--4--6p4---x---------------0--|
    D|--6--6-----7--7--|---------6------7--7----7-----|
    A|-----------------|-------------x--7--7h9--7-----|
    
  • Intro
    G|-----|-----|-----|-------------|
    D|-----|-----|-----|--20h19p20\--|
    A|-----|-----|-----|-------------|
    E|--5--|--5--|--5--|-------------|
    
    Verso
    G|---------------------------7-----|----------------|
    D|-2-2-3-3-5-6h7--7-7-9-9-10---10--|-2-2-3-3-5-6h7--|
    A|---------------------------------|----------------|
    E|---------------------------------|----------------|
     |       CATORCE      VECES        |
     
    Intro
    G|-----|-----|-----|-------------|
    D|-----|-----|-----|--20h19p20\--|
    A|-----|-----|-----|-------------|
    E|--5--|--5--|--5--|-------------|
    
    Verso
    G|---------------------------7-----|-----------------------------|
    D|-2-2-3-3-5-6h7--7-7-9-9-10---10--|-2-2-3-3-5-6h7--7-9999-7-----|
    A|---------------------------------|-------------------------9-7-|
    E|---------------------------------|-----------------------------|
     |       CINCO      VECES          |
    
    Puente
    G|------------------------|x4
    D|------------------------|
    A|----------222222--1-----|
    E|-0000-22
  • +
    ¡Colabora con nosotros!
    Envíanos tu versión de esta canción

Letra de La Gente Se Divierte
Estrofa 1
Estrofa 2
Interludio
Estrofa 3
Estrofa 4
El último compás queda inconcluso por el barullo, pero pueden repetir el solo para que no quede
descolgado. Espero la disfruten; si tienen dudas me pueden escribir a rockamorir@hotmail.com




[La Gente Se Divierte chords][La Gente Se Divierte cifra]
© LaCuerda.net · aviso legal · privacidad · es · en · pt · contacto
DINAMICO