Tablatura para Bajo de Divididos: Ay que dios boludo
Conexión · Inscripción
Letras y Acordes
Pantalla Completa
Imprimir
Versión Texto
Añadir Favorito
Otras Versiones

Mostrar Diagramas
Desfile Automático
Formato del Texto


Ay que dios boludo(BAJ)

Divididos

calidad:
divi0681
AUTOR: Divididos  corregir
ALBUM: desconocido
Enviado por ariel
Ay! que dios boludo

Intro y versos
    C           G          D            A
G|--------------------------------------------------|
D|*-------------------------------------------------|
A|*-3---3--------------2-3-5--5--7-5----------------|
E|--------0-2---3--3-5---------------8--5--0--5-3-5-|

G|-------------------------------------------------|
D|------------------------------------------------*|
A|-3---3--------------2-3-5--5--------------------*|
E|-------0-2---3--3-5-----------8--7--5--0--5-3-5--|repetir las veces necesarias


Antes de los puentes:
G|---------------------------|
D|---------------------------|
A|---------------------------|
E|-5---7-8--/12-5---7-8--/14-|

Puentes ('Se me divorciaron...') y solo
G|-----------------------------------------------|
D|-------------------------------4---------------|
A|---------------------------------4-------------|
E|-5-5-5--/17--3-3-3--/15--2-2-2------1-1--0-1-1-| x4


Estribillos ('Vestite pebeta...')
   C        G         A
G|------------------------------------|
D|--------------7/8-8---------775-75--|
A|-3---33-3--57---------4-5-7-------7-|
E|---3---3--3---------5---------------| x3

G|----------------------------9977-----|
D|--------------7/8-8-------------976--|
A|-3---33-3--57---------4-5-7--------7-|
E|---3---3--3---------5----------------|

G|---------------------------------|
D|---------------------------------|
A|---------0-0-1-2---------0-0-1-2-|
E|-1-1-1-0---------1-1-1-0---------|


Final (despues del 2 estribillo)
   C       G       D       A
G|----------------------------------|
D|----------------------------------|
A|-3---------2-3-4-5------------1-2-|
E|---0-1-2-3---------2-3-4-555------| repetir las veces necesarias

terminar en A
Este fichero es trabajo propio de su transcriptor y representa su interpretación personal de la canción. El material contenido en esta página es
para exclusivo uso privado, por lo que se prohibe su reproducción o retransmisión, así como su uso para fines comerciales.

© LaCuerda.net · Aviso Legal · Privacidad