Acordes de Guitarra » D »Diazepunk » Nid (Tab)

Nid
Diazepunk

Letras, Acordes y Tabs para Guitarra, Bajo y Ukulele

  • B|---------------2-2-2-2-2--5---------------------3-3-3-3-2-2-2-2-|
    G|-3-3-3-3-3--5--3-3-3-3-3--3--1-1-1-1-1--3-------4-4-4-4-3-3-3-3-|
    D|-4-4-4-4-4--4--4-4-4-4-4--4--2-2-2-2-2--2-------5-5-5-5-4-4-4-4-|
    A|-5-5-5-5-5--5----------------2-2-2-2-2--2-----------------------|
    E|----------------------------------------------------------------|
    
    verso :
    
    E5     D5        C5    G5     A5    C5     E5    D5
    sabias ke aveces yo    si tus ojos no veo brillar   busco
    una cerveza entre los
    
             G5              C5-B5-E5    D5   C5
    recuerdos donde alguna vez
    tu  y yo pasamos algun tiempo juntos
    
    Coro:
    
    E5     D5           C5     C*
    NUNCA SABRE BIEN KE DECIR, SIN TI NADA TIENE SENTIDO
    
  • B|-3-3-3-3-3--5--3-3-3-3-3--5--1-1-1-1-1--3-5-3-----4-4-4-4-3-3-3-3-|
    G|-4-4-4-4-4--5--4-4-4-4-4--5--3-3-3-3-3-------5-4--5-5-5-5-4-4-4-4-|
    D|-5-5-5-5-5--5--3-3-3-3-3--5--2-2-2-2-2------------4-4-4-4-3-3-3-3-|
    A|------------------------------------------------------------------|
    E|------------------------------------------------------------------|
    
     G5(x3) C5-B5-E5
    
    
    VERSO:
    E5     D5        C5    G5     A5          C5        E5         D5           C5
    sabias ke aveces yo    si tus ojos no veo brillar   busco una cerveza entre los
              G5              C5-B5-E5    D5   C5
    recuerdos donde alguna vez       tu  y yo pasamos algun tiempo juntos
    
    COro_:
    E5     D5           C5     C*
    NUNCA SABRE BIEN KE DECIR SIN TI NADA TIENE SENTIDO
    E5       D5         C5              C*
    SOLO ESTOY SI TU NO ESTAS......... ERES MI UNICA NECESIDAD!!!
    
  • e|----------------------------------------------------------------------|
    B|-3-3-3-3-3-3--5-3-3--3-3-3-3-3-3--5-3-3--1-1-1-1-1-1-0h3h5p3-----4--3-|
    G|-4-4-4-4-4-4--4-4-4--4-4-4-4-4-4--4-4-4--3-3-3-3-3-3--------5p4--5--4-|
    D|-5-5-5-5-5-5--5-5-5--3-3-3-3-3-3--3-3-3--2-2-2-2-2-2-------------4--3-|
    A|----------------------------------------------------------------------|
    E|----------------------------------------------------------------------|
    
    [Verso]
    
    Em      D5         C5
    sabias que a veces yo
    Em      D5         C5
    en tus ojos no veo brillar
    Em          D5           C5
    busco una cerveza entre los recuerdos
    G5               C5 B5
    donde alguna vez
    Em   C5    G5            D5
    tu y yo pasamos algún tiempo juntos
    
    
  • e|--------------------------------------------------------------|
    B|-3-3-3-3-3--5--3-3-3-3-3--5--1-1---0-3-5-3----4-4-4-4-3-3-3-3-|
    G|-4-4-4-4-4--4--4-4-4-4-4--4--3-3---------5-4--5-5-5-5-4-4-4-4-|
    D|-5-5-5-5-5--5--3-3-3-3-3--3--2-2--------------4-4-4-4-3-3-3-3-|
    A|--------------------------------------------------------------|
    E|--------------------------------------------------------------|
    
    INTRO segunda guitarra G5 - F5 - E5  (G5#- G5)
    
    SEGUNDA GUITARRA (solo la segunda)
    G5 (2 muteado) + (1 plancha)   esto se repite 4 veces rápido!!
    
    C5-E5 (este kambio rápido de C5 a E5 .. sigue  D5  ..sigue lo de abajo!!!
    
    Estrofa
    
    E5     D5        C5    E5       D5            C5    E5           D5      C5
    sabias ke a veces io si tus ojos no veo brillar busco una cerveza entre los
              G5              C5-B5-E5     C5   G5           D5
    recuerdos donde alguna vez        tu  i io pasamos algún tiempo juntos
    
  • e|----------------------------------------------------------------------|
    B|-3-3-3-3-3-3--5-3-5--3-3-3-3-3-3--5-3-5--1-1-1-1-1-1---3h5p3-----4--3-|
    G|-4-4-4-4-4-4--4-4-4--4-4-4-4-4-4--4-4-4--3-3-3-3-3-3--------5p4--5--4-|
    D|-5-5-5-5-5-5--5-5-5--3-3-3-3-3-3--3-3-3--2-2-2-2-2-2-------------4--3-|
    A|----------------------------------------------------------------------|
    E|----------------------------------------------------------------------|
    
    [x2]
    
    [Verso]
    
    Em      D5         C5
    sabias que a veces yo
    Em      D5         C5
    en tus ojos no veo brillar
    Em          D5           C5
    busco una cerveza entre los recuerdos
    G5               C5 B5
    donde alguna vez
    Em   C5    G5            D5
    
  • +
    ¡Colabora con nosotros!
    Envíanos tu versión de esta canción

Letra de Nid
verso :
sabias ke aveces yo si tus ojos no veo brillar busco
una cerveza entre los
recuerdos donde alguna vez
tu y yo pasamos algun tiempo juntos
NUNCA SABRE BIEN KE DECIR, SIN TI NADA TIENE SENTIDO
VERSO:
Todo el tiempo eres especial y yo un tonto y nada mas.
Capaz solo de sonreir
si tu sonrisa logra como el sol brillar.
tu y yo una cerveza y dejando el tiempo pasar
lo siento kisas no debi decirlo... A|-5-3-2-3-|
(punteo despues de esta parte)
Nunca sabre bien q decir..sin ti nada tiene sentido....etc.
punteo
................
-> espero q les salga pes y viva el punk pes!
y aqui toy con mi amigo chupetin
(eduardo) cual quier
consulta mi msn es gustavo601@hotmail.com
y asuluditos pa mi mamiga rozzy pes y apra mi amor jennie




[Nid chords][Nid cifra]
© LaCuerda.net · aviso legal · privacidad · es · en · pt · contacto