Acordes de Guitarra » D »Diazepunk » 10:10 (Tab)

10:10
Diazepunk

Letras, Acordes y Tabs para Guitarra, Bajo y Ukulele

  • -----------------/------------
    -9-10-12-9-10-12-/9-7-9-7-9-10
    -9-9-9-9-9-9--9--/6-6-6-6-6-6-          x2
    -----------------/------------
    -----------------/------------
    -----------------/------------
    
    2da guitar:E5         C*
    
    intro parte  rapida:
    -----------------/------------
    -----------------/------------
    -----------------/------------
    -6-7-9-6-7-9-----/6-4-6-4-6-7-          x2
    -7-7-7-7-7-7-----/4-4-4-4-4-4-
    -----------------/------------
    
    2da guitar:E5         C*              (*=sostenido)
    
    No puedo despertar.
    
  • e-4-4-4-5-7-7-7-7-7-/4-4-4-2-2-2-2-2
    B-5-5-5-5-7-7-7-7-7-/5-5-5-2-2-2-2-2   x2
    
    e--4-4-4-2-2-2-2-2
    B--5-5-5-2-2-2-2-2 x2
    
    no puedo despertar
    E5              B5
     Estoy atrapado y no quiero escapar
            C#5                      A5
    de éste sueño que no entenderé jamás.
               B5              C#      A5
    q ha detenido el reloj.
                        B5
    (hasta aqui va muteado)
    
    Ella llegó, yo la encontré silbando una vieja
    E5       B5            C#5
    cancion Con el primer abrazo robó mi corazón
          A5  B5           C#5          A5
    
  • Les dejo el bass de 10 y 10
     * = muchas veces
    
    
    intro x 4
    
    G-------------------------------
    D-------------------------------
    A--------------3333333333--
    E-000000000-----------------
    
    
    Empieza la guitarra y luego entra el bajo
    
    verso x2
    
    G-----------------------------------------------------
    D-----------------------------------------------------
    A----2*-4*-2*-----2*-4*----------2*-4*---------
    E-0*-------------5*---------5*-0*-----------------
    
    Esta es la ultima cuando dice al soñar
    G-----------------------------------------------------
    D-----------------------------------------------------
    A----2*-4*-2*-----2*-4*----------4*-------------
    E-0*-------------5*---------5*-0*-----0*----------
    
    
    
    G---------------------------------
    D---------------------------------
    A----2*-4*-2*-----2*-4*------
    E-0*-------------5*---------5*-
    
    
    Intro x5
    G-------------------------------
    D-------------------------------
    A--------------3333333333--
    E-000000000-----------------
    
    
    Y termina en
    G----
    D----
    A----
    E
  • +
    ¡Colabora con nosotros!
    Envíanos tu versión de esta canción

Letra de 10:10
-9-10-12-9-10-12-/9-7-9-7-9-10
-9-9-9-9-9-9--9--/6-6-6-6-6-6- x2
No puedo despertar.
Estoy atrapado y no quiero escapar
de éste sueño que no entenderé jamás.
se ha detenido el reloj.
Ella llegó, yo la encontré silbando una vieja canción.
Con el primer abrazo robó mi corazón no lo devolvió jamás.
Respiro aire de ciudad
que a veces no me deja pensar.
Pues son sólo recuerdos que no quiero olvidar jamás aunque no logre despertar.
Quiero oírte
otra vez latir y en cada verso sentir tu corazón
que golpea junto al mío como lo hace una canción que sólo aprendimos los dos
al soñar.......
WENO TOA LA CANCION YEVA ESTE CIRKULO DE NOTAS:
AL SOÑAR!!... (ke ahi entra la melodia del organo)
luego otra vez el intro rapido y acaba :)!! yaa estem este si es
los acordes son los firmes ya el otro pata ta rekagado del cerebro XD aJAjajA
SORRY TIO PERO NO ES COMO TU LA HABIAS SACADO PEZZ :p




[10:10 chords][10:10 cifra]
© LaCuerda.net · aviso legal · privacidad · es · en · pt · contacto