Acordes de Guitarra » D »Danilo Montero » El es el Rey (Tab)

El es el Rey
Danilo Montero

Letras, Acordes y Tabs para Guitarra, Bajo y Ukulele

  • Em               C
    El es el Rey infinito en poder
    Em                 C
    El es el Rey de los cielos
    Em              C
    seré para El siervo fiel
    G                     D
    pues mi vida compró con Su amor
    Em                 C
    El es el Rey lo confiesa mi ser
    Em                  C
    El es el Rey de los siglos
    Em               C
    mi vida la rindo a Sus pies
    G                   D
    El es Rey sobre mi corazón
    Em            C
    El es el Rey, El es el Rey
    G                 D
    El es el Rey de mi vida
    
  • Em                C
    El es el rey infinito en poder
    Em                   C
    El es el rey de los cielos
    Em            C
    Sere para el siervo fiel
    G                        D
    Pues mi vida compro con su amor
    
    
    Em                  C
    El es el rey lo confiesa mi ser
    Em                   C
    El es el rey de los siglos
    Em                     C
    Mi vida la rindo a sus pies
    G                     D
    El es rey sobre mi corazon
    
    ::CORO::
    
  •   E
    E---------------------------------------
    B---------------------------------------
    G------9---9-9-9---9-9-9---9-9-9--------
    D------9---9-9-9---9-9-9---9-9-9--------
    A------7---7-7-7---7-7-7---7-7-7--------
    E-15/7----------------------------------
    
    
    E---------------------------------------
    B---------------------------------------
    G-------------------7-9-9ª--------------
    D-----5---------7h9---------------------
    A-5h7--5/7~-----------------------------
    E---------------------------------------
    
    
    E---------------------------------------
    B---------------------------------------
    G---------------------------------------
    
  • Pues Brothers, perdon pero la version que vi de bajo es muy distinta a la
    de el CD Todopoderoso, por eso se las dejo...
    
    
    Bien en esta versión del CD, empieza el tecla haciendo
    
    GG- CC  GG DD
    lo hace 5 veces
    
    En la tercera entra la bataka
    Y en la quinta vez entra ya el bajo y voz
    
    1er verso de la estrofa: El es el rey infinito en poder
    G--------------------------
    D-----------------------5--
    A--7-7----5-7------5-7-----
    E------7--------8----------
    
    2o verso de la estrofa: El es el rey de los cielos
    G--------------------------5-s7—5------
    D--------------------5-s7----------7--5
    A--7-7----5-7----33--------------------
    E------7-------------------------------
    
    3er verso de la estrofa: hace lo mismo que el primero… Seré para el siervo…
    G--------------------------
    D-----------------------5--
    A--7-7----5-7------5-7-----
    E------7--------8----------
    
    4 verso: Pues mi vida….
    G--------------------------
    D--------------------------
    A-----------2-3--55---------
    E----33--5------------------
    
    Y e
  • +
    ¡Colabora con nosotros!
    Envíanos tu versión de esta canción
  • Tutorial
    El es el rey tutorial con guitarra
    6:41

Letra de El es el Rey
El es el rey infinito en poder
El es el rey de los cielos
Sere para el siervo fiel
Pues mi vida compro con su amor
El es el rey lo confiesa mi ser
El es el rey de los siglos
Mi vida la rindo a sus pies
El es rey sobre mi corazon
El es el rey, el es el rey
El es el rey de mi vida
El es el rey, el es el rey
Reina con autoridad
Su reino eterno es
Su trono en el cielo es
El es el rey que viene a su pueblo a llevar




[El es el Rey chords][El es el Rey cifra]
© LaCuerda.net · aviso legal · privacidad · es · en · pt · contacto