Tablatura para Bajo de Danilo Montero: El es el Rey
Conexión · Inscripción
Letras y Acordes
Pantalla Completa
Imprimir
Versión Texto
Añadir Favorito
Otras Versiones

Mostrar Diagramas
Desfile Automático
Formato del Texto


Danilo Montero
El es el Rey(BAJ)
calidad:
dmon0034
AUTOR: Danilo Montero  corregir
ALBUM: Eres Todopoderoso
Enviado por Marcos
Pues Brothers, perdon pero la version que vi de bajo es muy distinta a la
de el CD Todopoderoso, por eso se las dejo...


Bien en esta versión del CD, empieza el tecla haciendo

GG- CC  GG DD
lo hace 5 veces

En la tercera entra la bataka
Y en la quinta vez entra ya el bajo y voz

1er verso de la estrofa: El es el rey infinito en poder
G--------------------------
D-----------------------5--
A--7-7----5-7------5-7-----
E------7--------8----------

2o verso de la estrofa: El es el rey de los cielos
G--------------------------5-s7—5------
D--------------------5-s7----------7--5
A--7-7----5-7----33--------------------
E------7-------------------------------

3er verso de la estrofa: hace lo mismo que el primero… Seré para el siervo…
G--------------------------
D-----------------------5--
A--7-7----5-7------5-7-----
E------7--------8----------

4 verso: Pues mi vida….
G--------------------------
D--------------------------
A-----------2-3--55---------
E----33--5------------------

Y empieza la otra estrofa, una vez que ya lo tengan dominado
podrán hacer esta variación rápida para que se oiga mejor en la estrofa:

1er verso de la estrofa:
G--------------------------
D-----------------------5--
A--7-77----5-7------5-7-----
E---7---7--------8----------

2o verso de la estrofa:
G-----------------------5s7—5------
D--------------------5s7-----7-5----
A--7-7----5-7------57-----------7-5------
E------7---------88----------------------

Y el coro es simple:

El es el rey…        El es el rey…

G-----------------------------------
D-------------5----------------2—5-2
A-----------7---7--0—3-3-3-3--------
E—0-0-0-0----------------------------

El es el rey de mi vida
G-------------------------------
D--------------------------------
A----------------5-5-5-5-5---------
E----3-3-3--3------------------
Su trono eterno es:
             C                    D            E
G---------------------------------------------------
D--------10------10-------10--12-----12---14-------14-
A---------------------------------------------------
E------------8-8-----8-8--------10-10--------12-12--

Esto ultimo creo que va doble EN CADA nota




Listo… ahora el solo de bajo, es muy poco pero ahí ta…

Entra el teclado haciendo algo y en el tercer tiempo entra esto

H= JALAR HAMMER….
X= MUTEADA
P= POPED(PULGAR)
PX=POPED MUTEADO
S=SLIDE-DESLIZAR

G-------H5-s7------------H5-S7--------
D--------------X7—--X7----------------
A----------------PX5-PX5--------------
E-------------------------------------

SE HACE TRES VECES LO MAS RAPIDO QUE PUEDAN… Y LUEGO
DEJAN PASAR 2 TIEMPOS Y AL TERCERO va esto:


G---------H16—-S12-------H14-12
D-------------------14---------
A------------------------------
E------------------------------


Seria todo, que sea para la Honra de Dios….
cualquier duda.... NO DUDEN jajjaja...
escribanme... m_castelanlopez@hotmail.com
Este fichero es trabajo propio de su transcriptor y representa su interpretación personal de la canción. El material contenido en esta página es
para exclusivo uso privado, por lo que se prohibe su reproducción o retransmisión, así como su uso para fines comerciales.
© LaCuerda.net · Aviso Legal · Privacidad