Acordes de Guitarra » D »Danilo Montero » Dia de jubileo (Tab)

Dia de jubileo
Danilo Montero

Letras, Acordes y Tabs para Guitarra, Bajo y Ukulele

  • Bm
    Alza tu vista hacia el cielo
    F#m                       Bm
    celebra la grandeza del Señor
    E9                           Em
    con manto de alegría te ha vestido
    F#                           Bm
    con gloria en lugar de aflicción
    Bm
    Alza tus manos hacia el cielo
    F#m                   Bm Bbm Am Abm
    cercana esta tu redención
    E9                           Em
    proclama libertad a los cautivos
    F#                     Bm
    declara sanidad del corazón
    
                  G                Bm
    es dia de jubileo, vamos a celebrar
    F#m                               Bm Bbm Am Abm
    
  •        Bm9 - E6, Dmaj7
           E6/B, Dmaj7/A, Emaj7/A, D#maj7/G#
    [Trompetas]
           Bm7, Esus  -  G6, A6  (x3)
           E7  -  Bm7/E
    
    
    Estrofa:
    
    Bm                            F#m7
    Alza tus manos hacia el cielo celebra la
                   Bm   F#m7          Bm/G#
    grandeza del Señor            con manto
                       Gmaj7            Fm7
    de alegría te ha vestido     con   gloria
                         Bm     Dmaj7/F#
    en lugar    de aflicción
    
    
    Bm          E6/F#             Bm      F#m7
    
  • INTRO
    B--------------------------------------------------------------
    E-------2-2-2-0-2-------2-2-2-0-2-------2-2-2-0-------2-2-2-0-2
    A--2-2------------0-2-2-----------0-2-2---------0-2-2----------
    D--------------------------------------------------------------
    G--------------------------------------------------------------
    
    B------------------------------------------------------
    E---------0-3-3-3-5-5-5---------0-3-3-3-2-2-2----------
    A-2-2-------------------2-2---------------------2-2----
    D-----1-2-------------------1-2--------------------1-2-
    G------------------------------------------------------
    
    B-----------------------------------------------------
    E0-3-3-3-5-5-5---------0-3-3-3-2-2-2-3-0-0-2-3-5------
    A--------------2-2------------------------------------
    D------------------1-2--------------------------------
    G-----------------------------------------------------
    
    
    ESTROFA PARTE 1
    
    B------0------------------------------
    E----2---5---3-2-0-2-----0-2-2--------
    A--2-------2--------
  • +
    ¡Colabora con nosotros!
    Envíanos tu versión de esta canción

Letra de Dia de jubileo
Alza tu vista hacia el cielo
celebra la grandeza del Señor
con manto de alegría te ha vestido
con gloria en lugar de aflicción
Alza tus manos hacia el cielo
cercana esta tu redención
proclama libertad a los cautivos
declara sanidad del corazón
es dia de jubileo, vamos a celebrar
es tiempo de gozarse en la casa de adonai
es dia de jubileo, alegra el corazón
hagamos una fiesta en la presencia del Señor




[Dia de jubileo chords][Dia de jubileo cifra]
© LaCuerda.net · aviso legal · privacidad · es · en · pt · contacto