Tablatura para Bajo de Danilo Montero: Dia de jubileo
Conexión · Inscripción
Letras y Acordes
Pantalla Completa
Imprimir
Versión Texto
Añadir Favorito
Otras Versiones

Mostrar Diagramas
Desfile Automático
Formato del Texto


Dia de jubileo(BAJ)

Danilo Montero

calidad:
dmon0502
AUTOR: Danilo Montero  corregir
ALBUM: Cantare de tu amor (2000)
Enviado por Josías
INTRO
B--------------------------------------------------------------
E-------2-2-2-0-2-------2-2-2-0-2-------2-2-2-0-------2-2-2-0-2
A--2-2------------0-2-2-----------0-2-2---------0-2-2----------
D--------------------------------------------------------------
G--------------------------------------------------------------

B------------------------------------------------------
E---------0-3-3-3-5-5-5---------0-3-3-3-2-2-2----------
A-2-2-------------------2-2---------------------2-2----
D-----1-2-------------------1-2--------------------1-2-
G------------------------------------------------------

B-----------------------------------------------------
E0-3-3-3-5-5-5---------0-3-3-3-2-2-2-3-0-0-2-3-5------
A--------------2-2------------------------------------
D------------------1-2--------------------------------
G-----------------------------------------------------


ESTROFA PARTE 1

B------0------------------------------
E----2---5---3-2-0-2-----0-2-2--------
A--2-------2---------O-2--------------
D-------------------------------------
G-------------------------------------


ESTROFA PARTE2
B---------------------------------------------------------------
E------0-2-2-------0-2-2---5------5--7---6--5-----3-3-0-0-2-2---
A0-2-2-------5-2-2-------2---5-7-----------------5-----------0-2
D-------------------------------7------9---8--7-----------------
G---------------------------------------------------------------
CORO
B----------------------------------------------------------
E--0-2-2- 3-3--5-5-5-5-0-7-7-7-7-2-2-2-2--7---6---5-----2-2
A-----------------------------------------------------5----
D-------------------------------------------9---8---7------
G----------------------------------------------------------

B-----------------3-------------------------------0---
E-------5-------5---0-0-2-2-2-----3-3-5-5-5-5---2-----
A-5-4-4---4-5-5---------------2-2-------------2-------
D-----------------------------------------------------
G-----------------------------------------------------

ESTROFA  PARTE 1 SEGUNDA VUELTA

B-----------------------------------------------
E-7-7---7-7---7-7---7-7-0-5-------7-7---7-7-4-4-
A-----5-----5-----5---------7---7-----5---------
D-----------------------------7-----------------
G-----------------------------------------------

B-----------------------------
E-4-4-0-3-3---3-0-0—2-2-2-----
A-------------------------0-2-
D6-----------5----------------
G-----------------------------




ESTROFA PARTE 2 SEGUNDA VUELTA
B------------------------------------------------------------
E0-2-2---------0-2-2-------0-2-2---5-5---------7---6---5-----
A-------0-2-2--------5-2-2-------2-----7-----7-------------5-
D----------------------------------------7-7-----9---8---7---
G------------------------------------------------------------

B-----------------
E3-3-0-0-0-2-2----
A--------------0-2
D-----------------
G-----------------


chequense muy bien esta rola porq el bajeo esta bien chido
 y mas en el nuevo disco de
danilo se escucha mejor,
q sea d bendicion para su vida,
recuerda q eres instrumento d Dios

gress te amo mucho mi vida
Este fichero es trabajo propio de su transcriptor y representa su interpretación personal de la canción. El material contenido en esta página es
para exclusivo uso privado, por lo que se prohibe su reproducción o retransmisión, así como su uso para fines comerciales.

© LaCuerda.net · Aviso Legal · Privacidad