Acordes de Guitarra » C »Los Cuates de Sinaloa » La Yaquesita (Tab)

La Yaquesita
Los Cuates de Sinaloa

Letras, Acordes y Tabs para Guitarra, Bajo y Ukulele

  •    B |-3--5-5--3-5-3--5-5--3-3-3-5--3-3-5-3-3------|
       G |-4-------------------4-4------4-4------------|
       D |---------------------------------------------|
       A |---------------------------------------------|
       E |---------------------------------------------|
    
    
       e |----2-2--0------2-2--0------2/3--2----------|
       B |-1--3-3--1-3-1--3-3--1-3-1--3/5--3-3-1-0----|
       G |-2---------4-2---------4-2---------4-2-0----|
       D |--------------------------------------------|
       A |--------------------------------------------|
       E |--------------------------------------------|
    
    
       e |----3-3--2-3-2--3-3------2-3------3-2-2------|
       B |-3--5-5--3-5-3--5-5--3-3-3-5--3-3-5-3-3------|
       G |-4-------------------4-4------4-4------------|
       D |---------------------------------------------|
       A |---------------------------------------------|
    
  •                 G
    
       e |-2--3-3-2-3-2--3-3---------------------------|
       B |-3--5-5-3-5-3--5-5---------------------------|
       G |---------------------------------------------|
       D |---------------------------------------------|
       A |---------------------------------------------|
       E |---------------------------------------------|
    
                D7
       e |-----2-3-----2-2----------------------------|
       B |-0-1-3-5-0-1-3-3----------------------------|
       G |--------------------------------------------|
       D |--------------------------------------------|
       A |--------------------------------------------|
       E |--------------------------------------------|
    
                       G
       e |---2-2-2----2-2-2-----3-------3--------------|
       B |-1-3-3-3--1-3-3-3-1-0-5-1-3-1-0--------------|
    
  • +
    ¡Colabora con nosotros!
    Envíanos tu versión de esta canción

Letra de La Yaquesita
Yo tengo una Yaquesita que quise mucho en sonora
Que cuando ella baila cumbia y el que la ve se enamora
Yo tengo una Yaquesita que quise mucho en sonora
Que cuando ella baila cumbia y el que la ve se enamora
Ay mi Yaquesita ay mi Yaquesita
Tú tienes tu cuerpo hermoso que pareces sirenita
Ay mi Yaquesita ay mi Yaquesita
Tú tienes tu cuerpo hermoso que pareces sirenita
Y todos los yaquis dicen pos que te traes hombre yori
Y yo les contesto a todos que si me caso con yori
Y todos los yaquis dicen pos que te traes hombre yori
Y yo les contesto a todos que si me caso con yori
Ay mi Yaquesita ay mi Yaquesita
Tú tienes tu cuerpo hermoso que pareces sirenita
Ay mi Yaquesita ay mi Yaquesita
Tú tienes tu cuerpo hermoso que pareces sirenita




[La Yaquesita chords][La Yaquesita cifra]
© LaCuerda.net · aviso legal · privacidad · es · en · pt · contacto