Acordes de Guitarra » C »Los Cuates de Sinaloa » El Manisero (Tab)

El Manisero
Los Cuates de Sinaloa

Letras, Acordes y Tabs para Guitarra, Bajo y Ukulele

  •                        F#
    e |--------------------2---------|
    B |-----------2-2---2--2---------|
    G |-----1-3-4-----4----3---------|  Mire no mas, mire nomas
    D |-4-4--------------------------|
    A |------------------------------|
    E |------------------------------|
                           F#
    e |--------------------2---------|
    B |-----------2-2---2--2---------|
    G |-----1-3-4-----4----3---------|  Zapatéllele
    D |-4-4--------------------------|
    A |------------------------------|
    E |------------------------------|
    
    
    e |---------------------1-2-2------1--1-1------2-2------1--1-1------2-2---|
    B |-----------2--2-2--4--------2-4---------2-4------2-4---------2-4-------|
    G |-----1-3-4-------------------------------------------------------------|
    D |-4-4-------------------------------------------------------------------|
    
  • Intro
    
    e |-------0-2-0---00-------------|
    B |---2-3-------3----33-2--------|
    G |------------------------------|
    D |------------------------------|
    A |------------------------------|
    E |------------------------------|
    
    Después se repite el intro asta donde están los dos 00 y empieza esto
    
    e |-0-2--444-2--0-55-------------|
    B |------------------------------|
    G |------------------------------|
    D |------------------------------|
    A |------------------------------|
    E |-----------------------------------------------|
    
    Cuando se acelera  es casi lo mismo pero lo acortas
    
    e |--0-2-44-2-0—55---------------|
    B |------------------------------|
    G |------------------------------|
    D |------------------------------|
    A |------------------------------|
    E |------------------------------|
    
    En este paso es una libre y uno en el traste
    
    e |-05-05--07-07--09-09--010-010-|
    B |------------------------------|
    G |------------------------------|
    D |------------------------------|
    A |---------------------------
  • +
    ¡Colabora con nosotros!
    Envíanos tu versión de esta canción

Letra de El Manisero
otra guitarra esta tocando esto:
h= golpear
p= jalar
*= mantener la nota
mientras la otra sigue tocando
luego sigue igual q la otra cuando se escucha una muy breve pausa:
esta parte es toda velocidad y ritmo
*= mantener la nota
x15 veces x15 veces + ó -
luego es trinado:
despues de esto sigue trinado pero donde ya no hay traste
se va por la cuerda hasta el hueso
yo toco la canción con un capo en el taste 1 para ganar velocidad
ya que no toco el traste 1 sino toco la cuerda al aire...
el ritmo tócalo con el capo en el traste 1 tambien es mas fácil usa:




[El Manisero chords][El Manisero cifra]
© LaCuerda.net · aviso legal · privacidad · es · en · pt · contacto