Acordes de Guitarra » C »El Cuarteto de Nos » Mario Neta (Tab)

Mario Neta
El Cuarteto de Nos

Letras, Notas, Punteos, Tablaturas y Acordes de Guitarra (Tabs & Chords)

  • Letra y Acordes
    e-----5--7-8--5--------|------4--5--4-----------------------------
    B--6------------6-5----|---5-----------5-5-5h6-5------------------
    G----------------------|------------------------------------------
    D----------------------|------------------------------------------
    A----------------------|------------------------------------------
    E----------------------|------------------------------------------
    
    e-----5--7-8--5--------|------4--5--4--------------|----------------------
    B--6------------6-5----|---5-----------5-5-5h6-5---|----------------------
    G----------------------|---------------------------|---4h5--4---2~--------
    D----------------------|---------------------------|----------------------
    A----------------------|---------------------------|----------------------
    E----------------------|---------------------------|----------------------
    
    *Todas la estrofas son Am y E7*
    
    *El acorde de E7/B es el mismo que el E7 pero no se
    toca el bajo en la sexta cuerda sino, en la quinta que marca el B*
    
    Voy por la ruta en mi camioneta blanca
    
  • +
    ¡Colabora con nosotros!
    Envíanos tu versión de esta canción

Letra de Mario Neta
*Todas la estrofas son Am y E7*
*El acorde de E7/B es el mismo que el E7 pero no se
toca el bajo en la sexta cuerda sino, en la quinta que marca el B*
Voy por la ruta en mi camioneta blanca
Está un poco vieja, pero todavía arranca
Y subo la radio a un volumen intenso
A veces prefiero no escuchar lo que pienso
Y un tipo hablando con lenguaje complicado
Dice que sólo queremos estar ocupados
Para no ver la realidad, y la vida tal cual es
Y que hay que terminar con tanta estupidez
Todo demanda nuestra participación
Las marcas, las redes o la televisión
Pseudoactividades que nos atan y condenan
Para satisfacer voluntades ajenas
Y el último en quedar
Que apague la luz
Y yo sigo acelerando
Pero no tengo apuro
Trabajando duro, ganando el dinero
Y comprar lo que no sé si necesito pero quiero
Y cada mañana siempre me pregunto
¿Por qué el despertador quiere gritarme?
¡DALE!
¡MARIONETA!
¡SON LAS SIETE!
¡LEVANTATE!
Freno
*Sigue la estrofa en Am y E7*
Arranco
En la radio hay un aviso que me pide que le pida plata a un banco
Y bueno, quizás un préstamo no viene mal
Justo estaba yendo al mall para ver qué puedo comprar
Terminó la tanda y el tipo sigue hablando y
Va filosofando sobre el mal que nos va hundiendo
Estamos queriendo humo y humo nos están vendiendo
Y como estamos durmiendo, el alma nos están robando
Felicidad en latada para un mundo infeliz, puro barniz
Todo se consume rápido y sin bis
Ésta sociedad es como un pelo sin frizz
Si en Marzo es novedad
Es viejo en Abril!
Y yo sigo acelerando
Pero no tengo apuro
Trabajando duro, ganando el dinero
Y comprar lo que no sé si necesito pero quiero
Y cada mañana siempre me pregunto
¿Por qué el despertador quiere gritarme?
¡DALE!
¡MARIONETA!
¡SON LAS SIETE!
¡LEVANTATE!
*Vuelve la melodía del intro y sigue la estrofa con los mimos acordes: Am y E7*
¿Me habla a mí? ¿Este tipo me habla a mí?
¿Será que no entendí? ¿Será que me perdí?
¿Para qué me voy a complicar ¿Para qué me voy a cuestionar?
Si soy feliz así
Sé el silencio es a veces violento
Pero estoy dudando si no será necesario
Escuchar un poco más lo que pienso
Y apagar un rato la radio
Y yo sigo acelerando
Pero no tengo apuro
Trabajando duro, ganando el dinero
Y comprar lo que no sé si necesito pero quiero
Y cada mañana siempre me pregunto
¿Por qué el despertador quiere gritarme?
¡DALE!
¡MARIONETA!
¡SON LAS SIETE!
¡LEVANTATE!



© LaCuerda.net · Aviso Legal · Privacidad