Acordes de Guitarra » C »Coti » Nada fue un error (Tab)

Nada fue un error
Coti

Letras, Acordes y Tabs para Guitarra, Bajo y Ukulele

  • Intro    A  E/G#  D  E
    
      A
    Tengo una mala noticia,
        E/G#
    no fue de casualidad,
          D/F#
    yo quería que nos pasara,
              E/G#
    y tú y tú, lo dejaste pasar.
    
    No quiero que me perdones,
    y no me pidas perdón,
    no me niegues que me buscaste,
    nada nada de esto,  heey!
    
    CORO
                          A        E
    Nada de esto fue un error, uo oh¡
                   D
    
  • Intro: LA MI RE  MI
    
    LA
    Tengo una mala noticia
        MI
    No fué de casualidad
           RE                          MI
    Yo quería que nos pasara, y tú, y tú
    
    Lo dejaste pasar
          LA
    No quiero que me perdones
       MI
    Y no me pidas perdón
           RE
    No me niegues que me buscaste
                 MI
    Nada nada de esto...
    
    
    
  •        A           E             D           E
     E-||--------------------------------------------------------
     B-||--------------------------------------------------------
     G-||------7-6----------6-7-9-------7-6----------------------
     D-||--7---------9-7-9----------7-7------9-7-9---------------
     A-||-------------------------------------------7/9-7--------
     E-||--------------------------------------------------------
    
    A
    Tengo una mala noticia
        E
    no fue de casualidad
           D                            E
    yo quería que nos pasara...y tu, y tu
    lo dejaste pasar
    
         A
    No quiero que me perdones
       E
    y no me pidas perdón
    
  •       A           E             D           E
     E-||---|-----------|-------------|-----------|-------||
     B-||---|--3-2------|---2-3-5-----|-3-2-------|-------||
     G-||-2-|-----4-2-4-|---------2-2-|-----4-2-4-|-------||
     D-||---|-----------|-------------|-----------|-2s4-2-||
     A-||---|-----------|-------------|-----------|-------||
     E-||---|-----------|-------------|-----------|-------||
    
    A
    Tengo una mala noticia
        E
    no fue de casualidad
           D/F#                          E
    yo quería que nos pasara...y tu, y tu
    lo dejaste pasar
    
         A
    No quiero que me perdones
       E
    y no me pidas perdón
    
  • hola esta es una buena cancion
    y va dedicado a mi
    para ti pioja
    que la extraño mucho
    
    
    
    G|----------------------------------------------------------|
    D|--------------------------------------------------------|
    A|-------------------------------5-5-5h5-5---------------|
    E|--5-5-5-5----5------0-0-0--0--------------0-0 ---------|
    
    
    
    
    G|----------------------------------------------------------|
    D|--------------------------------------------------------|
    A|-------------------------------5-5-5h5-5---------------|
    E|--5-5-5-5----5------0-0-0--0--------------0-0 ---------|
    
    
    
    
    G|----------------------------------------------------------|
    D|--------------------------------------------------------|
    A|-------------------------------5-5-5h5-5---------------|
    E|--5-5-5-5----5------0-0-0--0--------------0-0 ---------|
    
    
    
    
    G|----------------------------------------------------------|
    D|--------------------------------------------------------|
    A|-------------------------------5-5-5h5-5---------------
  • Se toca con armónica en DO, las - son aspiradas y las demas
    sopladas.
    
    
    
    Nada fue un error
    
    
    Intro: 4... -5 5 -4 4 -4... 5 -5 6 4 4... -5 5 -4 4 -4... 5 6...
    
    
     6   6  5  6 5  6 6  4
    Tengo una mala noticia
    6   7  -7 -6 6 -6 6
    no fue de casualidad
    -6  -7 7 5 -5 -5  5 -5 -5   5  6  5  6
    yo queria que nos pasara... y tu, y tu
    6   6 6 -5  5 -4
    lo dejaste pasar
    
    
    6    6 6    6  6  6  6 6
    No quiero que me perdones
    -7 7 -7 -6 6   6  6
    y no me pidas perdón
    -6 -7  7  -5  -5 -5   5 -5 -5
    no me niegues que me buscaste
    6 -5 6 -5   6  6
    nada nada de esto
    6   6  6  -5   5  -4 4 4   3  5 -4
    nada de esto fue un error, u oh oh
    -5 5   -4   4  4
    nada fue un error
    -5 -5 -5   5   -4   4  4   3  5 -4
    nada de esto fue un error, u oh oh
    -5 5   -4   4  4
    nada fue un error
    
    
    7  -7 -6 6  6   6  6 6
    Los errores no se eligen
    -6 -7  7 -7 -6 6  6
    para bien o para mal
    -6 -7 7   -5 -5  5 -5 -5  -5 6  -5 6
    no fallé cuando viniste... y tu, y tu
    6   6  6 -5  5  4
    no quisiste fallar
    
    
    6  5  6  6  6 5 6 6 6   6   6   7 
  • +
    ¡Colabora con nosotros!
    Envíanos tu versión de esta canción
  • Tutorial
    Como tocar Nada Fue Un Error en guitarra (con SOLO)
    tutorial Completo
    9:31
  • Tutorial
    HD
    Explicado - Como tocar "Nada fue un error" de Coti Sorokin en el bajo tutorial#131
    9:35

Letra de Nada fue un error
Tengo una mala noticia,
no fue de casualidad,
yo quería que nos pasara,
y tú y tú, lo dejaste pasar.
No quiero que me perdones,
y no me pidas perdón,
no me niegues que me buscaste,
nada nada de esto, heey!
Nada de esto fue un error, uo oh¡
nada fue un error,
nada de esto fue un error, uo oh¡
nada fue un error.
Los errores nos eligen,
para bien o para mal,
no fallé cuando viniste,
y tú y tú, no quisiste fallar.
Aprendí la diferencia,
entre un juego y el azar,
quien te mira y quien se entrega,
nada nada de esto.
Se repite todo*
nada de esto fue!




[Nada fue un error chords][Nada fue un error cifra]
© LaCuerda.net · aviso legal · privacidad · es · en · pt · contacto