Acordes de Guitarra » C »Coti » Tu nombre (Tab)

Tu nombre
Coti

Letras, Acordes y Tabs para Guitarra, Bajo y Ukulele

  • Intro: G
         G           G7      C
    Tu nombre es mi dulce castigo
        D           D7       G
    Mi sangre, mi droga y rubí
        B7                 Em
    Mi parte de vos, mi destino
         A        A7        D  / D7
    Tu nombre me sabe a jazmín
    
        G         G7      C
    Tu nombre no tiene palabras
         B             B7     Em  / Em7
    Si está escrito en mi corazón
           C                  D7
    Y de pronto sale de cualquier lugar
        Bm                   Em
    No sabe más que hacerme sentir mal
        Am              D7               G
    Tu nombre tan inoportuno no sabe llamar
    
  • E 0--- ---0--0--3--3--1-- -1-1-0---1-0  -------------- --------------
    B -1-- ------------------ -------3----  -3-3-1-3h--1-- ------1--------
    G --0--- ---------------- ------------  -------------- -----0---------
    D ---2--- --------------- ------------  -------------- -2-3ho---3pf-2-
    A 3--- ---3--3----------- ------------  -------------- 3---------------
    E ---- ------------------ ------------  -------------- ----------------
    
    
       C        A#9          F
    Tu nombre es mi dulce castigo
        G                  C
    Mi sangre, mi droga y rubí
         E7               Am    Am/G
    Mi parte de vos, mi destino
        F        G        C
    Tu nombre me sabe a jazmín
        C       A#9       F
    Tu nombre no tiene palabras
        E7                  Am    Am/G
    Si está escrito en mi corazón
    
  • Arreglo a la entrada y salida de cada estribillo y del punteo.
    
    E-||---5/7--5---------------|
    B-||------------8-----------|
    G-||------------------------|
    D-||------------------------|
    A-||------------------------|
    E-||------------------------|
    
    
    Punteo despues del primer estribillo.
    Sobre base de G / G7 / C / Cm / G / D7 / G
    
    E-||------7-7-7-7-10-10h12-10-(8)---7-7h8-7-5-8-7-(7)--5-5-3-2-(3)---|
    B-||-----------------------------------------------------------------|
    G-||---7-------------------------------------------------------------|
    D-||-----------------------------------------------------------------|
    A-||-----------------------------------------------------------------|
    E-||-----------------------------------------------------------------|
    
    
    Es todo.
  • +
    ¡Colabora con nosotros!
    Envíanos tu versión de esta canción

Letra de Tu nombre
Tu nombre es mi dulce castigo
Mi sangre, mi droga y rubí
Mi parte de vos, mi destino
Tu nombre me sabe a jazmín
Tu nombre no tiene palabras
Si está escrito en mi corazón
Y de pronto sale de cualquier lugar
No sabe más que hacerme sentir mal
Tu nombre tan inoportuno no sabe llamar
Y es así que trato de contarte todo ésto que siento
Es así que estoy adormecido en el mar de ilusión
Es así que todo vale todo y todo se termina
Todo se termina
Todo menos vos
Tu nombre me tiene perdido/a
Vagando en el mar de ilusión
Yo nunca me doy por vencido
Yo nunca me rindo... al menos por hoy
Y es así que trato de contarte todo ésto que siento
Y es así que estoy adormecido en el mar de ilusión
Es así que todo vale todo y todo se termina
Todo se termina
Todo menos vos
Y es así que trato de encontrarte por nuevos caminos
Es así que en tu nombre hago rimas para ser feliz
Es así que todo vale todo y todo se termina
Todo se termina
Todo menos vos
Todo se termina
Todo menos vos




[Tu nombre chords][Tu nombre cifra]
© LaCuerda.net · aviso legal · privacidad · es · en · pt · contacto