Acordes de Guitarra » C »Coda » Halcón de invierno (Tab)

Halcón de invierno
Coda

Letras, Acordes y Tabs para Guitarra, Bajo y Ukulele

  •      A#m         F#          C#             G#
    e--------1--|--------2--|--------4--|--------4-------|
    B------2----|------2----|------6----|------4---4-----|
    G----3------|----3------|----6------|----5--------5--|
    D-----------|-----------|-----------|----------------|
    A--1--------|-----------|--4--------|----------------|
    E-----------|--2--------|-----------|--4-------------|
    
    Estrofa 1:
    A#m         F#          C#    G#
     Cientos de veces he sentido
    A#m         F#         C#    G#
     que yo no pertenesco a ti
    A#m             F#           C#    G#
     que el destino se ensaña conmigo
    A#m           F#             C#            G#    G#
     siempre en mi contra nunca con una explicación.
    
    Puente:
    A#m                             G#
    
  • e.------1----/-----2------/----4----/---5---/
    b.------2----/-----2------/----6----/---5---/
    g.------3----/-----3------/----6----/---6---/
    d.------3----/-----4------/----6----/---7---/
    a.------1----/-----4------/----4----/---7---/
    E.------1----/-----2------/----4----/---5---/
    
    Intro 
    
    El intro de esta rola esta en dos guitarras acontinuacion pondre 
    la parte del intro que toca la guitarra 1
    
           A#m             F#           RE 
    
    e.-----------1--/------------2--/----------4-/
    b.--------2-----/---------2-----/-------6----/
    g.-----3--------/------3--------/----6-------/
    d.--------------/---------------/------------/
    a.--------------/---------------/------------/
    E.-1------------/--4------------/-4----------/
    
  • +
    ¡Colabora con nosotros!
    Envíanos tu versión de esta canción

Letra de Halcón de invierno
Estrofa 1:
Cientos de veces he sentido
que yo no pertenesco a ti
que el destino se ensaña conmigo
siempre en mi contra nunca con una explicación.
Es tu mundo tan cruel que me envuelve
en la mas profunda soledad
y no lo entiendo
pero no voy ha soportarlo
pero jamas voy ha cambiar
como un halcon de invierno
prefiero volar y alejarme de ti
porque no voy a soportarlo. No, No, No!
Estrofa 2:
si acaso no te gusta nada
mi forma de ser o pensar
hasta el color se va y es suficiente para hacer notar
que no es bien vista mi manera de amar.
Es tu mundo tan cruel que me envuelve
en la mas profunda soledad
y no lo entiendo
pero no voy ha soportarlo
pero jamas voy ha cambiar
como un halcon de invierno
prefiero volar y alejarme de ti
porque no voy a soportarlo. No, no, no
porque este "halcon se refujia volando en mi interior
mientras mas presión redescubriras a mi corazon
y no, no hay otro igual,
te lo voy ha demostrar
y no, no hay otro igual
y juro que me buscaras.
Es tu mundo tan cruel que me envuelve
en la mas profunda soledad
y no lo entiendo
pero no voy ha soportarlo
pero jamas voy ha cambiar
como un halcon de invierno
prefiero volar y alejarme de ti
porque no voy a soportarlo.
pero no voy ha soportarlo
pero jamas voy ha cambiar
como un halcon de invierno
prefiero volar y alejarme de ti
porque no voy a soportarlo.
No, No! No,No, No!!!
listo, que les vaya bonito y no olviden
supervitaminarse y mineralizarse
DVDABEVO




[Halcón de invierno chords][Halcón de invierno cifra]
© LaCuerda.net · aviso legal · privacidad · es · en · pt · contacto
DINAMICO