Acordes de Guitarra » C »Coda » Tócame (Tab)

Tócame
Coda

Letras, Acordes y Tabs para Guitarra, Bajo y Ukulele

  •   MIm        DO
    dejame tocarte,
         SOL             RE 
    dibujar cada momento hasta el fin
    MIm           DO
    siente intensamente
     SOL       RE
    en tu desnudez
    
    
    verso(b)
     MIm           DO
    soy capaz de todo por ti
        RE
    y no se si te tengo
      MIm          DO
    eres frio y calor
          RE
    siempre igual, siempre igual
    
    
  • G---0---0---0---0
    D--2---2---4---5
    A-2---3---5---7
    
    RIFF 1b:
    G-444--5----77--9
    D-444--5----77--9
    A-222--3----55--9
    
    RIFF 2:
    G-------4---------9
    D-2-2---4---5-5---9
    A-2-2---2---5-5---7
    E-O-0-------3-3----
    
    RIFF 3:
    G----4--7--9
    D-2--4--7--9
    A-2--2--5--7
    E-0---------
    
  •              B5,C5,D5,E5
    
    e------------------------------------
    B------------------------------------
    G------0--------0--------0--------0--
    D----0-------0--------0--------0-----   x4
    A--2------3--------5--------7--------
    E------------------------------------
    
    
    e------------------------------------
    B------------------------------------
    G------------------------------------
    D--4-4-4----5-5-5------7-------------   
    A--2-2-2----3-3-3------5-------------
    E------------------------------------
    
    e------------------------------------
    B------------------------------------
    G------------------------------------
    
  • +
    ¡Colabora con nosotros!
    Envíanos tu versión de esta canción

Letra de Tócame
dejame tocarte,
dibujar cada momento hasta el fin
siente intensamente
en tu desnudez
verso(b)
soy capaz de todo por ti
y no se si te tengo
eres frio y calor
siempre igual, siempre igual
with fill:1
otra vez
tocame el alma
fill:1
tocame
como tu sabes hacerlo
fill:1
tocame
verso(a)
puedes seducirme
hacer que caiga rendido a tus pies
puedes ignorarme
y hacermme enloquecer
verso(b)
pero esta noche nada es igual
es un matiz de ternura
guardate por siempre asi
quedate por siempre asi
verso(b)
pero esta noche nada es igual
es un matiz de ternura
dejame morir asi
rozando la locura
fill:1
3 times
(solo2)
esta cancion es una de mis favoritas
espero y la disfruten
saludos a todo san diego y a todos
los que alguna vez estuvieron
con signos
juan carlos allende




[Tócame chords][Tócame cifra]
© LaCuerda.net · aviso legal · privacidad · es · en · pt · contacto