Acordes de Guitarra » C »Coda » Etérnamente (Tab)

Etérnamente
Coda

Letras, Acordes y Tabs para Guitarra, Bajo y Ukulele

  • E 
    
    E  C#m  B   G#m  A
    
    E                             C#m
    Hay un lugar donde quiero esconderme
    A                              B
    Donde quisiera vivir otra vez
    E                             C#m
    Por que estar sin ti me hace tanto mal
    A                               
    Pues para darte mi vida
         B
    No necesito morir
    
    
    C#m        C       
    Otra vez quiero sentir
    B                                 Bb
    Tu piel en cada rincón de  mi piel
    
  • Solo se transcribió la parte de los sweeps.
    La métrica es constante en 3illo de 16savos.
    
    --------------8-12p8---------8-13p10----------10------------------|-----------
    ------------------------------------------------------------------|-----------
    -12p9----9h12--------12-9h12---------14p10-14----14p10----10h14p10|-----------
    ------10-----------------------------------------------12---------|-----------
    ------------------------------------------------------------------|-----------
    ------------------------------------------------------------------|-----------
    
    
    
    ----------------13-17p13----------13-20b20v-|---------------------------------
    --------------------------------------------|---------------------------------
    -17p14----14h17----------17-14h17-----------|---------------------------------
    -------15-----------------------------------|---------------------------------
    --------------------------------------------|---------------------------------
    -------------------
  • Solo (2:54)
    
    ---------------------------------|-----------------------------|
    --9--10--12--10b--L--10--9-------|-----------------------------|
    ----------------------------11b--|--L--L--11-9-11~-L-L----L----|
    ---------------------------------|-----------------------------|
    ---------------------------------|-----------------------------|
    ---------------------------------|-----------------------------|
    
    
    
    ----------------------------|------------------------------------------|
    --7--9--10--9b--L--9--L--9--|--12-L-9-12-9-----------------------------|
    ----------------------------|--------------11-L-9-11-9-----------------|
    ----------------------------|--------------------------11~---L--L--/9--|
    ----------------------------|------------------------------------------|
    ----------------------------|------------------------------------------|
    
    
      sweeps
    
    --------------7-11-7---------7-12-9---------9----------------|
    -------------------------------------------------------------|
    --11-8---8-11-----
  • ¿Que onda Banda Rockera?, soy yo de nuevamente con otra tablatura de este
    grupo llamado coda, un grupo bueno, solo que poco comercial y por lo mismo
    casi nadie conoce estas rolas que son en pocas palabras poemas, y para no
    perder la costumbre, esta rola tambien se la dedico a esa persona que nunca
    olvidare, asi es, esta rola la vuelvo a dedicar a esa personita tan
    especial en mi vida, Stephany Crystal Sanabria Rodriguez, otra vez estoy
    ayudando a muchos chavos a poder tocar estas canciones tan padres a sus
    novias para enamorarlas mas y gracias a tus desprecios, cariños, reproches,
    etc. Cada vez hare mas tablaturas para y por ti.
    
    ¡¡Aqui vamos Banda!!
    
    Para empezar, esta rola si se puede tocar tranquilamente en un bajo de 4
    cuerdas, pero como yo tengo uno de 5 y otro de 6, ya me acostumbre a poner
    la cuerda extra en mis tablaturas, pero insisto en que no inlfuye en lo
    absoluto para el desarrollo de la cancion.
    
    La afinacion es la usual G, D, A, E, B.
    
    La cancion empieza con el piano
  • +
    ¡Colabora con nosotros!
    Envíanos tu versión de esta canción

Letra de Etérnamente
Hay un lugar donde quiero esconderme
Donde quisiera vivir otra vez
Por que estar sin ti me hace tanto mal
Pues para darte mi vida
No necesito morir
Otra vez quiero sentir
Tu piel en cada rincón de mi piel
Otra vez encenderé
mi corazón hasta que vuelvas a mi
Eternamente llevare tu rostro como una condena
Eternamente seguiré encadenado a ti
Aquí te esperare eternamente
No hay nadie así como tu
No hay ningún lugar
Ni el tiempo tiene valor
Si no estas ahí
Otra vez quiero sentir
Tu piel en cada rincón de mi piel
Otra vez encenderé
mi corazón hasta que vuelvas a mi
Eternamente llevare tu rostro como una condena
Eternamente seguiré encadenado a ti
Aquí te esperare eternamente
Hay un lugar donde quiero esconderme
donde quiero estar otra vez
por que ahí no basta eternidad
y ese lugar esta en tus brazos
Eternamente llevare tu rostro como una condena
Eternamente seguiré encadenado a ti
Aquí te esperare eternamente




[Etérnamente chords][Etérnamente cifra]
© LaCuerda.net · aviso legal · privacidad · es · en · pt · contacto