Acordes de Guitarra » C »CNCO » Hey DJ (Tab)

Hey DJ
CNCO

Letras, Acordes y Tabs para Guitarra, Bajo y Ukulele

  • e----------------------------------------------
    B----------------------------------------------
    G---------0-2-3-------0-2-2--2-2-3-2-0---2-2-0-
    D-0-2-3---------3-3-3--------------------------
    A----------------------------------------------
    E----------------------------------------------
    
    Intro: Dm-Bb-F-C (Arpegiado)
    
    
    1)
        Dm                       Bb
    Soy yo, el que no para de llamarte,
                             F
    porque no he podido olvidarte,
                C
    desde aquel día en que te vi…                   [Arpegiado]
    
        Dm                    Bb
    Soy yo el que solo vive soñando
    
  • e-------------------------------------------------
    B-------------------------------------------------
    G---------0-2-0----------0-2-2--2-2-3-2-0---------
    D-0h2-3---------3--3-3-3--------------------2-0-2-
    A-------------------------------------------------
    E-------------------------------------------------
    
    Intro: Dm-Bb-F-C (Arpegiado)
    
    
    1)
        Dm                       Bb
    Soy yo, el que no para de llamarte,
                             F
    porque no he podido olvidarte,
                C
    desde aquel día en que te vi…           Arpegiado: bajo del acorde 3ª 1ª 2ª 3ª]
    
        Dm                    Bb            o golpes Abajox3 y abajo-arriba
    Soy yo el que solo vive soñando
    
  • E|-----------------------------------------|
    B|-----------1-1---------------------------|
    G|---2---2x6-----3--3x8-2--2x4-0-0---------|
    D|-3-------------------------------3-5/7/5-|
    
    Soy yo el que sólo vive soñando
    Tú también te estás enamorando
    De mí
    
    E|------------------------------------------|
    B|-----------1-1--------3-1-1---------------|
    G|---2---2x6-----3--3x6-------2--2-0--------|
    D|-3----------------------------------------|
    
    
    PRE-CORO:
    
    Y hay algo en ti que me arrebata, bata
    Baby, tú me tienes loco, loco
    
    
  • +
    ¡Colabora con nosotros!
    Envíanos tu versión de esta canción
  • Tutorial
    HD
    CNCO Hey Dj Como Tocar En Guitarra
    4:04

Letra de Hey DJ
1)
Soy yo, el que no para de llamarte,
porque no he podido olvidarte,
desde aquel día en que te vi… [Arpegiado]
Soy yo el que solo vive soñando
Que también te estas enamorando… de mi
2)
Y Hay algo en ti que me arrebata bata
baby tu me tienes loco, loco
tu me encantas y se nota ah ah [Contratiempo]
y si tu y yo ya estamos aquí…
3)
Hey Dj póngale la música que le gusta,
una para que se mueva y se luzca. Y [Rasguido]
Baile conmigo, solo conmigo eh.. (x2)
4)
Y así nos vamos enamorando
Y tu cuerpo me va seduciendo [Contratiempo]
Que el dj la repita otra vez
pa bailar contigo otra vez… [x2]
5)
Dj ponme reggaeton, pero full
Pa pasarla cool
hay muchas en la discoteca [Rasguido]
pero solo me gustas tu
Solamente tu
yo me imagino en la playa contigo
en un cielo azul
6)
sobre la arena,
tu piel canela, entramo en calor
Vale la pena contigo nena
se pasa mejor…
2)
Y hay algo en ti que me arrebata bata
baby tu me tienes loco, loco
tu me encantas y se nota ah ah [Contratiempo]
y si tu y yo ya estamos aquí…
3)
Hey Dj póngale la música que le gusta,
una para que se mueva y se luzca. Y [Rasguido]
baile conmigo, solo conmigo ehhh.. [x2]
4)
Y Asi nos vamos enamorando
Y tu cuerpo me va seduciendo
Que el dj la repita otra vez
pa bailar contigo otra vez… (x2)
3)
Hey Dj póngale la música que le gusta,
una para que se mueva y se luzca.
baile conmigo, solo conmigo. (x2)




[Hey DJ chords][Hey DJ cifra]
© LaCuerda.net · aviso legal · privacidad · es · en · pt · contacto