Acordes de Guitarra » C »Los Claxons » La Posibilidad (Tab)

La Posibilidad
Los Claxons

Letras, Acordes y Tabs para Guitarra, Bajo y Ukulele

  • D
    Jamás imagine la posibilidad
    G
    De que Alguien como yo tendría oportunidad
    Bm
    De hacer a un lado todo para ser feliz
    Em                             A
    Y no pedirle a nadie nada a cambio
    D
    Pase un buen tiempo recorriendo la ciudad
    G
    Dejando en el camino lo que esta demás
    Bm
    Sin una idea clara de lo que es hogar
    Em                             A
    Me iba sintiendo un poco más cercano
    Bm              G             Em       A
    Y volvtee hacia atrás, dando gracias al pasado
    Bm                      G
    Y al voltear de nuevo hacia en frente
    
  • Intro: E, F#m
    
    E
    Jamas imaginé la posibilidad
    F#m
    De que alguien como yo tendría oportunidad
    A
    De hacer a un lado todo para ser feliz
    A#m                          B
    Y no pedirle a nadie nada a cambio
    
    E
    Pasé un buen tiempo recorriendo la ciudad
    F#m
    Dejando en el camino lo que está de más
    A
    Sin una idea clara de lo que es hogar
    A#m                           B
    Me iba sintiendo un poco más cercano
    
    
  •        E                  F#m
    E--0------------|----2-------------------------|
    A---------------|------------------------------|
    D---------------|--------------------2/4/2-----|   x2
    G-----1---------|--------2---------------------|
    B----------0----|-------------0----------------|
    e--------0------|-----------0------------------|
    
    /= Deslice
    
    -----------------------------Verso 1----------------------------------
    
    Este es el arpegeo que se utiliza para las estrofas del primero verso
           E*                 F#m*                 A*
    E--0------------|----2-----------------|-----------------|
    A---------------|----------------------|---0-------------|
    D---------------|----------------------|-----------------|
    G-----1---------|--------2-------------|-------2---------|
    B----------0----|-------------0--------|-------------0---|
    e--------0------|-----------0----------|-----------0-----|
    
  • +
    ¡Colabora con nosotros!
    Envíanos tu versión de esta canción

Letra de La Posibilidad
Jamás imagine la posibilidad
De que Alguien como yo tendría oportunidad
De hacer a un lado todo para ser feliz
Y no pedirle a nadie nada a cambio
Pase un buen tiempo recorriendo la ciudad
Dejando en el camino lo que esta demás
Sin una idea clara de lo que es hogar
Me iba sintiendo un poco más cercano
Y volvtee hacia atrás, dando gracias al pasado
Y al voltear de nuevo hacia en frente
Te encontré a mi lado
Y desde ahí sólo miró hacia el frente
Contigo aún lado es fácil caminar
Te vi llegar entre un montón de gente
Las leyes del camino conspiraron contra mi
Para poder tenerte hoy aqui
Jamás imagine la posibilidad
De que Alguien como yo tendría oportunidad
De hacer a un lado todo para ser feliz
Y no pedirle a nadie nada a cambio
Pase un buen tiempo recorriendo la ciudad
Dejando en el camino lo que esta demás
Sin una idea clara de lo que es hogar
Me iba sintiendo un poco más cercano
Y volvtee hacia atrás, dando gracias al pasado
Y al voltear de nuevo hacia en frente
Te encontré a mi lado




[La Posibilidad chords][La Posibilidad cifra]
© LaCuerda.net · aviso legal · privacidad · es · en · pt · contacto