Acordes de Guitarra » C »Claudio Cuellar » Quisiera (Tab)

Quisiera
Claudio Cuellar

Letras, Acordes y Tabs para Guitarra, Bajo y Ukulele

  •          G                   Cadd9                  G
    e|--------------------|----------------------|---------------3---|
    B|--3-------3------3--|--3--------3-------3--|---3--------3------|
    G|-----0-------0------|-----0--------0-------|------0------------|
    D|---------------0----|--------2-------------|-------------------|
    A|--------2-----------|--3--------------3----|---------2---------|
    E|--3-----------------|----------------------|---3---------------|            
    
                C                      
    e|-------------------------|
    B|--1-------1---1--------1-|
    G|-----0-----------0-------|
    D|--------2-----------0----|
    A|--3-----------2----------|
    E|-------------------------|
    
    
                G                      Cadd9                G
    e|--------------------|----------------------|---------------3---|
    B|--3-------3------3--|--3--------3-------3--|---3--------3------|
    
  • +
    ¡Colabora con nosotros!
    Envíanos tu versión de esta canción

Letra de Quisiera
Quisiera enfrentar este dolor que hay en mi y sonreir
quisiera poder abrazarte sin decir nada irme de aqui
pero no existe el momento si no estas aqui por mi
y esque no puedo evitarlo el sentirme asi
que no puedo llegar hasta a ti

Quisera desifrar porque te fuiste sin decir adios
quisiera decir que yo puedo estar sin ti pero no puedo
y cuando recuerdo tu risa me dan ganas de llorar
y tambien de llegar hasta ti
Porque nadie aprecia las cosas hasta verlas tan lejos de si
hay tantas cosas que decir y no las dices
y si piensas entre otras cosas y te fijas muy dentro de ti
fuera de todas apariencias te falta algo aslo salir
y hoy me encuentro aqui tan solo y triste sin poder salir
quisiera salir de este abismo pero quisiera salir sin ti
y esque mis fuerzas se han ido y hay cosas que no puedo hacer
pero hay una voz que me dicta solo debes vivir y luchar
y llegar hasta el fin
Porque nadie aprecia las cosas hasta verlas tan lejos de si
hay tantas cosas que decir y no las dices
y si piensas entre otras cosas y te fijas muy dentro de ti
fuera de todas apariencias te falta algo aslo salir
Acordes :
D/Dsus




[Quisiera chords][Quisiera cifra]
© LaCuerda.net · aviso legal · privacidad · es · en · pt · contacto
DINAMICO