Acordes de Guitarra » C »Cielo Razzo » Bébelo (Tab)

Bébelo
Cielo Razzo

Letras, Acordes y Tabs para Guitarra, Bajo y Ukulele

  • INTRO: F#m  Bm
    
    F#m
     No la haré beber...
      Bm
    señora se que el vino está tibio (repite)
    Bm Cm C#m
            balanceese, 
            C#m   Cm    Bm
    siga el ritmo por favor (repite)
    
      F#m
    1) No podrá negar
        Bm
    que tengo mi estilo (repite)
     C#m             C#m Cm  Bm   
    acérquese, deje ahí ese collar
    C#m             C#m     Cm     Bm
     déjelo... déjelo y venga a bailar...
    
    
  • Esta es mi primer cancion y no les prometo nada =D
    
    tiene una Base haci:
    
    E |-------------------------------------------------------|
    B |-------------------------------------------------------|
    G |------------------------------------------------4-2----|x2
    D |--4-2-4-2-4-----4-2-4-2-4-----4-2-4-2-4-----4-2-----4--|
    A |-------------------------------------------------------|
    E |-------------------------------------------------------|
    
    toda la cancion es haci hasta la parte que dice
    
    Balanceese, siga el ritmo por favor...
    
    en esta parte es haci:
    
    E |-----------------------------------------------|
    B |-----------------------------------------------|
    G |----4-6-4------4-6-4--------2-4-2------2-4-2---|
    D |--6-------6--6-------6----4-------4--4-------4-| x2
    A |-----------------------------------------------|
    E |-----------------------------------------------|
    
    A guante Cielo Razzo!!!
  • +
    ¡Colabora con nosotros!
    Envíanos tu versión de esta canción

Letra de Bébelo
No la haré beber...
señora se que el vino está tibio (repite)
balanceese,
siga el ritmo por favor (repite)
1) No podrá negar
que tengo mi estilo (repite)
acérquese, deje ahí ese collar
déjelo... déjelo y venga a bailar...
2) Por favor...
sáquese el vestido y tenga usted
esta camisola.
1)Sumba su bretel...
se exita y se asombra (repite)
al caer... por las delicias del amor,
se olvidó... de su reino se olvidó...
3)Tu cuerpo sabe nena
que no me detendré, (repite)
1)No la haré beber...
señora se que el vino está tibio (repite)
acérquese, deje ahí ese collar
déjelo... déjelo y venga a bailar...
2)Por favor...
3)Tu cuerpo sabe nena
que no me detendré, (repite)
tus piernas saben y queman
como dulce café (repite)
3)Tu cuerpo...




[Bébelo chords][Bébelo cifra]
© LaCuerda.net · aviso legal · privacidad · es · en · pt · contacto
DINAMICO