Acordes de Guitarra » C »Los Chalchaleros » El Cocherito (Tab)

El Cocherito
Los Chalchaleros

Letras, Acordes y Tabs para Guitarra, Bajo y Ukulele

  • E|--------------------------------------------
    B|--------------------------------------------
    G|-----------5--4--2-----2--2--2--1--2--5-----
    D|--2--2--2--------------------------------2--
    A|--------------------------------------------
    E|--------------------------------------------
    
    E|--------------------------------------------------
    B|--------------------------------------------------
    G|--7--6--7--8--9--5--4--5--6--7--4--3--4--5--6--2--  x2
    D|--------------------------------------------------
    A|--------------------------------------------------
    E|--------------------------------------------------
    
    LAm        REm
    Oiga cocherito
    SOL7                 DO
    por cuánto me va a llevar
    REm            LAm
    a la calle Caseros
    
  • +
    ¡Colabora con nosotros!
    Envíanos tu versión de esta canción

Letra de El Cocherito
G|--7--6--7--8--9--5--4--5--6--7--4--3--4--5--6--2-- x2
Oiga cocherito
por cuánto me va a llevar
a la calle Caseros
frente al pancero
me va a dejar.
Quiero comer ají
que pique hasta reventar
para volver a casa
y decirle a Juana
que sé cantar.
Oiga cocherito
por cuánto me va a llevar
a la calle Laprida
vuelta la esquina
Jose Julian.
Suba nomás señor
que nada le va a costar
y en la calle Caseros
frente al pancero
hemos de arreglar.




[El Cocherito chords][El Cocherito cifra]
© LaCuerda.net · aviso legal · privacidad · es · en · pt · contacto
DINAMICO