Acordes de Guitarra » C »Los Chalchaleros » A los bosques yo me interno (Tab)

A los bosques yo me interno
Los Chalchaleros

Letras, Acordes y Tabs para Guitarra, Bajo y Ukulele

  • E||5---5--4--5--4--5--4--3--0--|
    B||6---6--5--6--5--6--5--5--1--|
    G||-------------------------------|x2
    D||-------------------------------|
    A||-------------------------------|
    E||-------------------------------|
    
                                                               MI7-LAm
    E||--------------------------------3--3--2--0--0--0--------------|
    B||3---3--2--3--0--1--3--5--5--5--5--3--1--1--1--3--0--1--|
    G||4---4--3--4--1--2--4--5--5--------------------4--1--2--|
    D||-------------------------------------------------------------|
    A||-------------------------------------------------------------|
    E||-------------------------------------------------------------|
    
    LAm                      DO
    A los bosques yo me interno
                        MI7
    pa' consolarme llorando
                         LAm       X2
    
  • +
    ¡Colabora con nosotros!
    Envíanos tu versión de esta canción

Letra de A los bosques yo me interno
A los bosques yo me interno
pa' consolarme llorando
y los bosques me contestan
lo que has hecho estas pagando
En la distancia no te olvido
en la distancia te quiero mas
perdonaría toda la ofensa
pero olvidarte jamás, jamás
Intermedio
Como quieres que tan pronto
olvide el mal que me has hecho
de rato en rato me toco el pecho
la herida me duele mas y mas
En la distancia no te olvido
en la distancia te quiero mas
perdonaría toda la ofensa
pero olvidarte jamás, jamás




[A los bosques yo me interno chords][A los bosques yo me interno cifra]
© LaCuerda.net · aviso legal · privacidad · es · en · pt · contacto
DINAMICO