Acordes de Guitarra » C »Catupecu Machu » Apirié Omapare Piaroló (Tab)

Apirié Omapare Piaroló
Catupecu Machu

Letras, Acordes y Tabs para Guitarra, Bajo y Ukulele

  • B:-------12--7------------------------12--7----------------------------------|
    G:9--10------------------------9--10-----------------------------------------|
    D:---------------------------------------------------------------------------|
    A:---------------------------------------------------------------------------|
    E:---------------------------------------------------------------------------|
    
    
    12p11p10--12p11p10--13--13p12p11--13p12p11--13p12p11--14--13--14--13--14b|
    -------------------------------------------------------------------------|
    -------------------------------------------------------------------------|
    -------------------------------------------------------------------------|
    -------------------------------------------------------------------------|
    -------------------------------------------------------------------------|
    
    
    PARTE B
    
    e:---------------------------------------------------------------------------|
    B:---------------------------------------------------------------------------|
    G:---------------------------------------------------------------------------|
    
  • INTRO:
    1|----------|X3
    2|----------|
    3|----------|
    4|-55555555-|
    
    EN LA ULTIMA VEZ QUE HACE ESO LA GUITARRA EL BAJO BAJA A:
    1|-----------|
    2|-----------|
    3|-5-5-5-5-5-|
    4|-----------|
    
    DESPUÉS CUANDO LA GUITARRA CAMBIA A “A” HACE ESTO:
    1|---------|x15
    2|---------|
    3|-5h7p6p5-|
    4|---------|
    
    1|------|
    2|------|
    3|------|
    4|55555-|
    
    DESPUÉS CUANDO LA GUITARRA VUELVE A “G” HACE ESTO:
    1|----------------|X4
    2|----------------|
    3|----------------|
    4|-55555555-5-5/7-|
    
    
    ESTRIBILLO “APIRIÉ...”:
    1|------------|LO HACE DURANTE EL ESTRIBILLO
    2|----3-5-7-9-| (CUANDO HACE SLIDE TOCA VARIAS
    3|------------| VECES)
    4|-9/3--------|
     TODO TAPPING MANO DERECHA”POZO, BACHE AUTO, CORDÓN...”
    1|-19-17-16-19-20-|
    2|-19-17-16-19-20-|
    3|----------------|
    4|----------------|
    
    EN EL PUNTEO DE LA GUITARRA HACE ESTO:
    1|----------------------------|
    2|----------------------------|
    3|5-5-5-5-5-5-5-5-5-5-5-5-5-5-|
    4|----------------------------|
  • +
    ¡Colabora con nosotros!
    Envíanos tu versión de esta canción

Letra de Apirié Omapare Piaroló
12p11p10--12p11p10--13--13p12p11--13p12p11--13p12p11--14--13--14--13--14b|
A:5--5--5--5-5--xxx--xxx--5--5--5--5-5--xxx-xxx--5--5--5--5-5--xxx-xxx--5--5-|
A:--7--7--7--7-7--x-7-/-9--x-7--/-9|
Apirie no soy el blanco,apirie...
Pozo bache auto cordon...
El solo todavia no lo tengo,pero podes improvisar
Cualquier duda,comentario o corrección podes escribirme a: catupecu@fibertel.com.ar
ICQ nº=94634680




[Apirié Omapare Piaroló chords][Apirié Omapare Piaroló cifra]
© LaCuerda.net · aviso legal · privacidad · es · en · pt · contacto
DINAMICO