Acordes de Guitarra » C »Caramelos de Cianuro » Delineador (Tab)

Delineador
Caramelos de Cianuro

Letras, Acordes y Tabs para Guitarra, Bajo y Ukulele

  •  G                       Em Am
    Ahora  soy  yo quien te dejo
     G                    Em
    Eso nos va a  dejar parejos
     Am             C
    Por  una  vez maaas...
    
     G                         Em Am
    No es necesario hacer un drama
     G                    Em
    En la frontera de la cama
              Am        C
    Pues ya sabemos terminar
    
    Coro:
     G                  D
    Hay una fuente que nunca se agota
    
     Bm                   C
    Cuando me mientes de tus ojos brotan
    
  •  G                       Bm
    Ahora  soy  yo quien te dejo
    
     G                    Bm
    Eso nos va a  dejar parejos
    
                    C
    Por  una  vez maaas...
    
     G                         Bm
    No es necesario hacer un drama
    
     G                    Bm
    En la frontera de la cama
    
        (Am)             C
    Pues ya sabemos terminar
    
    
    Coro:
    
  •  G                       Em Am
    Ahora  soy  yo quien te dejo
     G                    Em
    Eso nos va a  dejar parejos
     Am             C
    Por  una  vez maaas...
    
     G                         Em Am
    No es necesario hacer un drama
     G                    Em
    En la frontera de la cama
              Am        C
    Pues ya sabemos terminar
    
    Coro: (Corrección)
     Em                  G
    Hay una fuente que nunca se agota
    
     Bm                   D
    Cuando me mientes de tus ojos brotan
    
  • E ---------------------------
    B ---------------------------
    G ---------------------------
    D -5-5-5-5-5-5-5-5-5-5-5-5---
    A -5-5-5-5-5-5-5-5-5-5-5-5---
    E -3-3-3-3-3-3-3-3-3-3-3-3---
    
       Ahora  soy  yo quien te dejo
    E ----------------------------------------------------------
    B ----------------------------------------------------------
    G -------------------------4-4-4-4-4-4-4-4-4-4-4------------
    D -5-5-5-5-5-5-5-5-5-5-5-5-4-4-4-4-4-4-4-4-4-4-4------------
    A -5-5-5-5-5-5-5-5-5-5-5-5-2-2-2-2-2-2-2-2-2-2-2-2p4h2-2-0--
    E -3-3-3-3-3-3-3-3-3-3-3-3----------------------------------
    
       Eso  nos va a  dejar parejos  por  una  vez
    E ----------------------------------------------------------
    B ----------------------------------------------------------
    G -------------------------4-4-4-4-4-4-4-4-4-4-4------------
    D -5-5-5-5-5-5-5-5-5-5-5-5-4-4-4-4-4-4-4-4-4-4-4------------
    
  • Deliniardor Caramelos de Cianuro
    
         Ahora  soy  yo quien te dejo   Eso nos va a  dejar parejos Por una
    D||--------------------------------------------------------------------
    A|| -------------------------------------------------------------------
    E||3-x16---------------------0-x16--3-x16----------------3-x8---5-x8---
    
    vez maaas... No es necesario hacer un drama   En la frontera de la cama
    D||----------------------------------------------------------------------
    A||--3-x16---------------------------------------------------------------
    E||---------3-x16-----------------------0-x16--3-x16---------------0-x16-
    
       Pues ya sabemos terminar
    D||----------------------------
    A||1------------------3-x16----
    E||-----------5-x8-------------
    
    CORO
      Hay una fuente que nunca se agota Cuando me mientes de tus ojos brotan
    G||--------------------------------------------------------------------
    D||-------------------5-x8---------------------------------------------
    A||7-x8----------------------------
  • +
    ¡Colabora con nosotros!
    Envíanos tu versión de esta canción

Letra de Delineador
Ahora soy yo quien te dejo
Eso nos va a dejar parejos
Por una vez maaas...
No es necesario hacer un drama
En la frontera de la cama
Pues ya sabemos terminar
Hay una fuente que nunca se agota
Cuando me mientes de tus ojos brotan
Lagrimas de delineador
El silencio suele ser mejor
Como tormenta que nunca se acaba
Como violenta lluvia de lava
Dejas salir tu dolor
Libéralo de tu interior
No entiendo como no se pudo
Nos llevábamos bien
No nos pudimos entender
No lo pudimos vencer
No se si es que nunca estuvo allí
O si la magia se fue
No se
Hay una fuente que nunca se agota
Cuando me mientes de tus ojos brotan
Lagrimas de delineador
El silencio suele ser mejor
Como tormenta que nunca se acaba
Como violenta lluvia de lava
Dejas salir tu dolor
Libéralo de tu interior
Y si te vas... déjame atrás...
Que no pueda hacerte daño nunca mas
Hay una fuente que nunca se agota
Cuando me mientes de tus ojos brotan
Lagrimas de delineador
El silencio suele ser mejor
Como tormenta que nunca se acaba
Como violenta lluvia de lava
Dejas salir tu dolor
Libéralo de tu interior
Y si te vaaaas déjame atráaaaas




[Delineador chords][Delineador cifra]
© LaCuerda.net · aviso legal · privacidad · es · en · pt · contacto