Acordes de Guitarra » C »Callejeros » Vicioso, Jugador y Mujeriego (Tab)

Vicioso, Jugador y Mujeriego
Callejeros

  • Letra y Acordes
    A5 D5 A5 A5 D5 D5 A5 A5 E5 D5    
    
           
             A5       D5             A5
    Soy ambicioso, sobervio y envidioso
                 D5                              A5 
    no tengo escrupulos a la hora de robar o mandarte a matar
           E5                      D5              A C# D D# E  D-D#-E
    me la paso mintiendo cuando empiezo no puedo parar.
             A5                      D5                         A5   A    
    Y como como un cerdo y no me importa si a otro le falta el pan
            D5                                             A5            
    no reconozco a mis hijos total lo mio no lo van a heredar
               E5                    D5              A C# D D# E  D-D#-E 
    porque lo mio es mio y tambien mio es lo de los demas.
    
            D5                   A5  
    Soy vicioso, jugador y mujeriego
          D5                        A5
    soy peor que lo peor y no lo niego
    
  • Tab p/Bajo
    CALLEJEROS
    
    VICIOSO, JUGADOR Y MUJERIEGO
    
    El bajo empieza junto con el saxo
    
    Intro
    
    G/----------|----------|----------|----------|----------|
    D/----------|----------|----------|----------|----------|
    A/----------|-55555555-|----------|----------|-55555555-|
    E/-55555555-|----------|-55555555-|-55555555-|----------|
    
    G/----------|----------|----------|----------6--|
    D/----------|----------|----------|----66-99--9-|
    A/-55555555-|----------|----------|-77----------|
    E/----------|-55555555-|-55555555-|-------------|
    
    G/----------4--|-------------|---------|
    D/----44-77—-7-|-------------|---------|
    A/-55----------|----44-55-66-|-75-67__-|
    E/-------------|-55----------|---------|
    
    Versos
                                                          --
    G/----|----|----------|----------|----|----|----------| |
    D/----|----|----------|----------|----|----|----------| |
    A/----|-5__|----------|----------|-5__|-5__|----------| |
    E/-5__|----|-55555555-|-55555555-|----|----|-55555555-| |
                        
  • +
    ¡Colabora con nosotros!
    Envíanos tu versión de esta canción

Letra de Vicioso, Jugador y Mujeriego
Soy ambicioso, sobervio y envidioso
no tengo escrupulos a la hora de robar o mandarte a matar
me la paso mintiendo cuando empiezo no puedo parar.
Y como como un cerdo y no me importa si a otro le falta el pan
no reconozco a mis hijos total lo mio no lo van a heredar
porque lo mio es mio y tambien mio es lo de los demas.
Soy vicioso, jugador y mujeriego
soy peor que lo peor y no lo niego
soy vicioso, jugador y mujeriego
mi unico problema es mi trabajo que no me deja en paz.
Y soy adicto a todo lo que ustedes puedan imaginar
deseo a la mujer del progimo y al progimo lo deseo igual
porque lo mio es mio y tambien mio es lo de los demas
Soy vicioso, jugador y mujeriego
soy peor que lo peor y no lo niego
soy vicioso, jugador y mujeriego
mi unico problema es mi trabajo que no me deja en paz.
mi unico problema o consuelo es...
Que trabajo de pastor
brindo al padre al hijo al espirituo santo
Amen
Aguante el rocanrol !!



© LaCuerda.net · aviso legal · privacidad · contacto