Acordes de Guitarra » C »Callejeros » 9 de julio (Tab)

9 de julio
Callejeros

Letras, Acordes y Tabs para Guitarra, Bajo y Ukulele

  • F#  A#m  C#  F#
    
    G#m  A#m  Ebm
    
    G#  C#  B  Ebm
    
    
    F#                 A#m
    Otro pabellon q se abre,
                       C#
    otra escuela entre rejas
    F#
    otra flor q no esta...
         G#m            A#m
    Otro delicuente q miente, roba,
                   Ebm
    gobierna y se va.
            G#                  C#
    Otra tormenta en mi cabeza hace
                   B
    
  • FA                    LAm
    Otro pabellón que se abre
     LAm                  DO
    Otra escuela entre rejas
    DO                FA
    Otra flor que no está
    SOLm                  LAm                        REm
    Otro delincuente que miente, roba , gobierna y se va
    REm  SOL
    Otra tormenta en mi cabeza
    DO                           SIb
    Hace que no pueda parar de pensar
     FA                LAm                         DO
    Otra vez otro boca river  que termina a las piñas
    DO             FA
    Arañando al final
    
    SOLm
    Otro entretenimiento
    LAm                                     REm
    
  • Intro: F# A#m C# F# G#m A#m D#m G# C# B
    
    E|-----------------------------------------------------------
    B|----------------------------------------------------------4
    G|-6-4-3-4/6-4-3-4/6-6-6-4-3---3-4-3-------6-6-4-6-6--6-6-4--
    D|---------------------------6-------6-4-4-------------------
    A|-----------------------------------------------------------
    E|-----------------------------------------------------------
    
    E|--------------------------
    B|-----------4-----4-4-4----
    G|-3-------6---6-4-------6--
    D|---6-4-6------------------
    A|--------------------------
    E|--------------------------
    
    
    F#                 A#m
    Otro pabellón que se abre,
                       C#
    
  •   G#m     C#      B
    1|----4~-------9~----7-----9-----11~--|
    2|------------------------------------|
    3|-4/6----6/10----7/8---8/9---9/11----|
    
    Riff 2
    
    1|------------|
    2|-7x-6x-4x-6-|
    3|------------|
    
    Riff 3
      Ebm       B         F#      C#
    1|-----------------------------------------|
    2|-6/7-6-4--6/7-6-4------------------------|
    3|--------6--------6--3-6-6-3--------------|
    4|----------------------------6~-6ba-4-----|x2
    5|-------------------------------------6-4-|
    6|-----------------------------------------|
    
    
  • Bueno aca subo este bajo que esta muy bueno..
    escuchen bien el tema para saber el ritmo..
    es sencillo porq es estructurado,
    se tienen que aprender cada una de las dos
    Partes y tocan todo el tema..
    Bueno aca va la primer parte que se toca
    en todo el tema excepto en los estribillos
    
    
    
    G|----------------------------------------------------------------------
    D|---------8------------------------------------------------------------
    A|-9---7-6-------------7-8-9-----(11-9)-x4---(13-11)-x8---13-11---------
    E|-------------6-7-9--------------------------------------------13-11---
    
    G|----------------------------------------------------------------------
    D|----------------------------------------------------------------------
    A|-13-11-------------------------9-9-9-7--------------------------------
    E|-------13-11-----4-----9---9-7----------------------------------------
    
    Bueno hasta aca tocamos la intro y la primera ronda.. la segunda ronda,
    antes de entrar al estribillo tiene un arreglo, osea hacem
  • +
    ¡Colabora con nosotros!
    Envíanos tu versión de esta canción

Letra de 9 de julio
Otro pabellon q se abre,
otra escuela entre rejas
otra flor q no esta...
Otro delicuente q miente, roba,
gobierna y se va.
Otra tormenta en mi cabeza hace
que no pueda parar de pensar
Otra vez otro boca y river
q termina a las piñas
arañando al final
Otro entretenimiento
para mi alma sin ganas
tendre que encontrar
Otra gran duda
se desnuda en la noche
que me encuentra al final
otra vez sin paz...
Est:
Y en el medio
No te encuentro
me hundo en la ciudad
Por la nueve de julio voy con el miedo de no verte nunca mas
Pasan autos frente a mi
Pasa la vida se abre esta herida
Como avenida por subir
Otro vaso de cerveza
bien fria que se llena, se prueba, se vacia y se va
A otras amenazas mas fuertes que un vicio
nos someteran
otro pais ira dejando estos sucios a la posterioridad
y otros lo sufriran...
Est:
Y en el medio no te encuentro, me hundo en la ciudad
por la nueve de julio voy con el miedo de no verte mas
pasan autos frente a mi
pasa la vida no cierra esta herida
como avenida por subir
Otra gran duda
se desnuda en la noche
que me encuentra al final
otra vez sin paz...
Est:
Y en el medio
No te encuentro
me hundo en la ciudad
Por la nueve de julio voy con el miedo de no verte nunca mas
Pasan autos frente a mi
Pasa la vida se abre esta herida
Como avenida por subir




[9 de julio chords][9 de julio cifra]
© LaCuerda.net · aviso legal · privacidad · es · en · pt · contacto