Tablatura para Bajo de Callejeros: Vicioso, Jugador y Mujeriego
Conexión · Inscripción
Letras y Acordes
Pantalla Completa
Imprimir
Versión Texto
Añadir Favorito
Otras Versiones

Mostrar Diagramas
Desfile Automático
Formato del Texto


Vicioso, Jugador y Mujeriego(BAJ)

Callejeros

calidad:
call0032
AUTOR: Rogelio Santos
ALBUM: Sed (2001)
Enviado por sebastian
CALLEJEROS

VICIOSO, JUGADOR Y MUJERIEGO

El bajo empieza junto con el saxo

Intro

G/----------|----------|----------|----------|----------|
D/----------|----------|----------|----------|----------|
A/----------|-55555555-|----------|----------|-55555555-|
E/-55555555-|----------|-55555555-|-55555555-|----------|

G/----------|----------|----------|----------6--|
D/----------|----------|----------|----66-99--9-|
A/-55555555-|----------|----------|-77----------|
E/----------|-55555555-|-55555555-|-------------|

G/----------4--|-------------|---------|
D/----44-77—-7-|-------------|---------|
A/-55----------|----44-55-66-|-75-67__-|
E/-------------|-55----------|---------|

Versos
                                                      --
G/----|----|----------|----------|----|----|----------| |
D/----|----|----------|----------|----|----|----------| |
A/----|-5__|----------|----------|-5__|-5__|----------| |
E/-5__|----|-55555555-|-55555555-|----|----|-55555555-| |
                                                        X2
G/----------|----------6--|----------4--|-------------| |
D/----------|----66-99--9-|----44-77—-7-|-------------| |
A/----------|-77----------|-55----------|----44-55-66-| |
E/-55555555-|-------------|-------------|-55----------| |
                                                        |
G/---------|                                            |
D/---------|                                            |
A/---------|                                            |
E/-75-67__-|                                            |
                                                      --
Estribillo

G/----------|----------|----------|----------|
D/----------|----------|----------|----------| X3
A/-55555555-|-55555555-|----------|----------|
E/----------|----------|-55555555-|-55555555-|

G/----------6--|----------4--|-------------|---------|
D/----66-99--9-|----44-77—-7-|-------------|---------|
A/-77----------|-55----------|----44-55-66-|---------|
E/-------------|-------------|-55----------|-75-67__-|

Versos X2

Estribillo

Puente

G/-------|
D/-------|
A/-56-7__|
E/-------|

Estribillo

G/----------|----------|----------|----------|
D/----------|----------|----------|----------| X3
A/-55555555-|-55555555-|----------|----------|
E/----------|----------|-55555555-|-55555555-|
  Mi unico problema es mi… trabajo q no me de en paz
G/----------6--|              G/----------4--|
D/----66-99--9-|              D/----44-77—-7-|
A/-77----------|              A/-55----------|
E/-------------|              E/-------------|

G/----------|------------------|----------|----------|
D/----------|------------------|----------|----------|
A/----------|------------------|-77777777-|-55555555-|
E/-55555555-|-5555555555555555-|----------|----------|

G/----------|------------------|----------|----|
D/----------|------------------|----------|----|
A/----------|------------------|-77777777-|-5__|
E/-55555555-|-5555555555555555-|----------|----|

Final

Esto va lento…

G/-------------------------|-------|
D/-------------------------|-------|
A/-------4-4-4-5-5-5-6-6-6-|-7-567-|
E/-5-5-5-------------------|-------|

   A_____MEN
G/-----------|
D/-----------|
A/-----------|
E/-4-----5__-|

__ (DEJAR SONANDO)

| (FINAL DEL COMPAS)

CUALQUIER DUDA ESCRIBAN A sebastian_schaberger@hotmail.com
Este fichero es trabajo propio de su transcriptor y representa su interpretación personal de la canción. El material contenido en esta página es
para exclusivo uso privado, por lo que se prohibe su reproducción o retransmisión, así como su uso para fines comerciales.

© LaCuerda.net · Aviso Legal · Privacidad