Acordes de Guitarra » C »Callejeros » Una nueva noche fria (Tab)

Una nueva noche fria
Callejeros

Letras, Acordes y Tabs para Guitarra, Bajo y Ukulele

  • G                       C
    Voces, sólo voces, como ecos;
    G                         C
    como atroces chistes sin gracia.
     Am                        C                G
    Hace mucho tiempo escucho voces y ni una palabra.
      Am                         C
    Y mis ojos maltratados se refugian en la nada
            G           C          Am                 G
    y se cansan de ver un montón de caras y ni una mirada.
      G                         C
    Una nueva noche fría en el barrio,
     G                          C
    los tranzas se llenan los bolsillos.
     Am                                 C                 G
    Las calles son nuestras, aunque el tiempo diga lo contrario.
    Am
    Y los sueños no soñados,
            C                        G
    ya se amargan la garganta y se callan.
    
  • D
    Voces, sólo voces, como ecos;
    D
    como atroces chistes sin gracia.
    G                                           D
    Hace mucho tiempo escucho voces y ni una palabra.
         A                       G
    Y mis ojos maltratados se refugian en la nada
           D           A            G                 D
    y se cansan de ver un montón de caras y ni una mirada.
    
    
    D
    Una nueva noche fría en el barrio,
    D
    los tranzas se llenan los bolsillos.
     G                                                     D
    Las calles son nuestras, aunque el tiempo diga lo contrario.
           A
    Y los sueños no soñados,
    
  • E|-------------------7--------------------------------7-----------------10---|
    B|--7---7---8---10-------10---8-8-7------7---8---10-------10----8-7-8----7---|
    G|--7-------------------------7-7-7-----------------------------7-7-7----7---|
    D|--0-0---0---0----0---0----0-----0----0---0---0----0---0----0---------------|
    A|---------------------------------------------------------------------------|
    E|---------------------------------------------------------------------------|
    
    
    E|-------3------5--3-------5-3--------5-3--------|
    B|---------3-----------3--------3---------3----7-|
    G|-----4------4-----------4--------4-----------7-|
    D|--5------------------------------------------0-|
    A|-----------------------------------------------|
    E|-----------------------------------------------|
    
    
    E|-------5------------3--------5--5--3|
    B|---------5------------3------7--5--3|
    G|-----6------4-----4-----4----7--6--4|
    D|--7-------------5------------7--7--5|
    
  • D|--------------------------------------------------7---5-7<5-7/9--7/5----|
    A|------------------------------------------------------------------------|
    E|------------------------------------------------------------------------|
    
      solo como un pajaro que vuela en la noche libre de vos, pero no de mi
    
    e|---------------------------------------------------------------------|
    B|--3-5------------------------------5/7--5----------------------------|
    G|------------------------------------------7-7------------------------|
    D|-----------------------------------------------7---5-7<5-7/9--9/12---|
    A|---------------------------------------------------------------------|
    E|---------------------------------------------------------------------|
    
       vacio como el sueño de una gorra lleno de nada sin saber donde ir
    
    e|---------------------------------------------------------------------|
    B|---14-14-15-17----------14-14-15-17------12-12-13-15----7------------|
    G|---14-------------------14---------------12-------------7------------|
    D|--------------------------------------------------------7------------|
    A|---------------------------------------------------------------------|
    
  •       _____________________________________
         /
    +---+---------------------------------------+---+
    |   | 1 | 2 | 3 | 4 | 5 | 6 | 7 | 8 | 9 | 10| C |
    +---+---------------------------------------+---+
          _____________________________________/
    
    Intro:
     4  4  5  4 (5) 4  6  4 (6) 4  6  4 (5)(5) 5
     4  4  5  4 (5) 4  6  4 (6) 4  6  4 (5) 5  4  7
        4  5  4 (5) 4  6  4 (6) 4  6  4 (5)(5) 5
     4  4  5  4 (5) 4  6  4 (6) 4  6  4 (5) 5  4  7
    
    Voces solo voces como ecos como atroces chistes sin gracia
     7  7  7  7  7  6  6 (6) 6     7  7  7  7  7  6  6 (6) 6
    hace mucho tiempo escucho voces y ni una palabra
    (6) 6 (6) 6 (6) 6 (6) 6 (6)(6)   (6)(6)(6) 7 (6) 6
    y mis ojos maltratados se refujian en la nada y se cansan
     7  7 (7)(6)(7)(6)(7)(7) 7  7 (9)(9)(9)(9)(9) 7  7  8 (8) 7
    de ver un monton de caras y ni una palabra
     7  7 (8)(7)(6) 6 (6) 6    (5)(5)(5) 6 (5) 5
    
    
    Una nueva noche fria en el barrio los transas se llenan los bolsillos
     7  7  7  7  7  7  7  6  6 (6) 6     7  7  7  7  7  6 (6) 6 (5) 5
  •         una nueva noche fria...una cancion barbaraa!!!
    esta para saxo alto, siguiendo la melodia de la voz...
    
    
    SI SI SI SI SI SI SI FA# FA# SOL# FA#
    SI SI SI SI SI FA# SOL# FA# MI RE#
    SOL# FA# SOL# FA# SOL# SOL# SOL# FA# SOL# SOL# FA# SOL#
    SOL# SI SI FA#
    SI SI LA# SOL# LA# SOL# LA# LA# LA# LA# MI MI MI MI MI SI SI RE#  DO# SI# -
    SI SI DO# LA# SOL# FA# SOL# FA# MI MI MI FA# MI RE#
    
    ESTRIBILLO
    RE# DO# DO# SI DO# DO# DO# SI DO# DO# SI DO# DO# –
    RE# DO# SI SI – SI SOL# DO# SI SI
    RE# RE# DO# DO# SI DO# DO# DO# SI DO# DO# RE# DO# SI SI FA# -
    FA# MI RE# SOL# SI SI
    LA# SOL# LA# SOL# LA# LA# SOL# LA# LA# SOL# LA# LA# SI SI FA# -
    FA# FA# MI RE# DO# SI DO# SI LA# SOL# - SI SI SI
    
    
    
    
    VAMOS PATO!!! TODA LA BANDA UNIDA PUEDE SEGUIR...
    
    NI LA VENGALA NI EL ROCK AND ROLL, A ESOS PIBES LOS MATO LA CORRUPCION!!!
  • +
    ¡Colabora con nosotros!
    Envíanos tu versión de esta canción
  • Tutorial
    Como tocar el solo de Una nueva noche Fria de callejeros (tutarras.com.ar)
    7:16
  • Tutorial
    Como tocar la intro de Una nueva noche Fria de callejeros (tutarras.com.ar)
    9:19

Letra de Una nueva noche fria
Voces, sólo voces, como ecos;
como atroces chistes sin gracia.
Hace mucho tiempo escucho voces y ni una palabra.
Y mis ojos maltratados se refugian en la nada
y se cansan de ver un montón de caras y ni una mirada.
Una nueva noche fría en el barrio,
los tranzas se llenan los bolsillos.
Las calles son nuestras, aunque el tiempo diga lo contrario.
Y los sueños no soñados,
ya se amargan la garganta y se callan.
Y eso, casi siempre (o siempre), les encanta.
Van quedando pocas sonrisas,
prisioneros de esta cárcel de tiza.
Se apagó el sentido,
se encendió un silencio de misa.
Menos horas en la vida, más respuestas a una causa perdida:
de porqué los sentimientos, vuelven con el día.
ESTRIBILLO:
(libre de vos...pero no de mí)
Vacío, como el sueño de una gorra.
Lleno de nada, sin saber donde ir.
Duro como un muerto en su tumba que murió de miedo,
por el valor.... de vivir.
Las nubes no son de algodones y las depresiones son maldiciones.
Te va distrayendo, te enrosca,
te lleva y te come.
Te lastima y no perdona y en algún lugar te roba la cara,
la sonrisa, la esperanza, la fé en las personas.
ESTRIBILLO:
(libre de vos...pero no de mí)
Vacío, como el sueño de una gorra.
Lleno de nada, sin saber donde ir.
Duro como un muerto en su tumba que murió de miedo,
por el valor.... de vivir.
espero que les sirva, es el primer punteo que saco...
suerte y aguante callejeros!!!
NO OLVIDAR SIEMPRE RESISTIR!!!!




[Una nueva noche fria chords][Una nueva noche fria cifra]
© LaCuerda.net · aviso legal · privacidad · es · en · pt · contacto