Acordes de Guitarra » C »Callejeros » Todo eso (Tab)

Todo eso
Callejeros

Letras, Acordes y Tabs para Guitarra, Bajo y Ukulele

  • INTRO---F#-Fm-D#m-F#-G#
    
    C#                                       G#
    El gordo Porcel, Alberto Olmedo, Diego Armando Maradona
    F#                      C#
    Luca Prodan, Carlos Gardel.
    C#
    Las madres y las abuelas
            G#
    que no olvidan ni perdonan
      F#                                  G#
    Ante el indulto y la obedencia de una ley
    C#
    Mis hermanos y mi vieja, mi viejo
           G#
    Mi tapiales o Parque Patricios
      F#                     C#
    Y algun vicio sin descartar
    C#
    Las calles y los edificios
    
  •     F#     Fm    D#m     F#         G#
    e|-------------------------------------6p4-------|
    B|-----7-7----6-6----4-4-2--2-1-2-4-1------7-7---|
    G|-----------------------------------------------|
    D|--s7-----s6-----s4-----------------------------|
    A|-----------------------------------------------|
    E|-----------------------------------------------|
    
    Solo
    Base: C# - G# - F# - C#
          C# - G# - F# - G#
    
    e|--------------------------------------------------|
    B|--------------------------------------------------|
    G|--------------8--8----6---6b--6-------------------|
    D|----6---6---6---6---------------------------------|
    A|--4---4---------------------------6--8-6h8p6---4--|
    E|--------------------------------------------------|
    
    e|-------------------------------------------------------|
    
  •      F#m      Fm       Ebm     F#         G#
    1-|------------------------------------------6-4------|
    2-|-----7-7------6-6------4-4--2--2-1-2-4-1------7-7--|
    3-|---------------------------------------------------|
    4-|-6h7------4h6------3h4-----------------------------|
    5-|---------------------------------------------------|
    6-|---------------------------------------------------|
    
    
    Verso:
    C#                                       G#
    El gordo Porcel, Alberto Olmedo, Diego Armando Maradona
    F#m                      C#
    Luca Prodan, Carlos Gardel.
    C#
    Las madres y las abuelas
            G#
    que no olvidan ni perdonan
      F#m                                  G#
    Ante el indulto y la obedencia de una ley
    
  • +
    ¡Colabora con nosotros!
    Envíanos tu versión de esta canción

Letra de Todo eso
El gordo Porcel, Alberto Olmedo, Diego Armando Maradona
Luca Prodan, Carlos Gardel.
Las madres y las abuelas
que no olvidan ni perdonan
Ante el indulto y la obedencia de una ley
Mis hermanos y mi vieja, mi viejo
Mi tapiales o Parque Patricios
Y algun vicio sin descartar
Las calles y los edificios
De mi Buenos Aires prendido
fuego a la noche cuando ruego
por verte regresar
Todo eso y tus besos
Son la mueca que me va a quedar
cuando me vengan a buscar
Todo eso es el peso
Que tendra mi alma cuando el diablo
me reserve algun lugar
Nooooooo y mis problemas
No seran problemas
Nunca Mas
Y un milagro un millon de sueños
El intento por entretenerte
y la suerte de ser testigo
y culpable de nuestra ilusion
Obsesión por la letra y la rima
Mas presion por trepar a la cima
Y una rutina que me lastima
Si no estas vos
Todo eso y tus besos
Son la mueca que me va a quedar
cuando me vengan a buscar
Todo eso es el peso
Que tendra mi alma cuando el diablo
me reserve algun lugar
no oo oo
estribillo (bis)
Todo eso y tus besos
Son la mueca que me va a quedar
cuando me vengan a buscar
Todo eso es el peso
Que tendra mi alma cuando el diablo
me reserve algun lugar
no oo oo
esta es una correccion de la otra transcripcion q esta bien echa
pero callejeros tiene un semitono menos..´por eso no me sonaba
y de paso puse el solo. cualqier duda contactenme pepe_bolaso@hotmail.com
'Ahora no hay que olvidar, siempre resistir
porque cuando duele, nunca, nunca, nunca se olvida.
Todo es desesperación, desesperanza....
quiero saber que hicieron...
quiero que a los responsables se los lleve el viento y no vuelvan mas...'




[Todo eso chords][Todo eso cifra]
© LaCuerda.net · aviso legal · privacidad · es · en · pt · contacto