Acordes de Guitarra » C »Callejeros » Pompeya (Tab)

Pompeya
Callejeros

Letras, Acordes y Tabs para Guitarra, Bajo y Ukulele

  • Em - D - Em - C -Em - D - C - Em  X4
    
    
    Em        D        Em        C
    Saliendo por Almafuerte y mi pena
    Em               D        C       Em
    esquivando a la gente que duerme ahi
    Em           D      Em             C
    calles de adoquines testigos del ayer
    Em      D       C              Em
    pasan carretas fantasmas de la noche
    
    Em
    
    Em                D     Em            C
    En la esquina del bar de La Plata y Saenz
    Em            D        C          Em
    los borrachos se pelean como costumbre
    Em          D           Em       C
    voy cruzando las vias de Homero Manzi
    
  •    Em                D         Em             C
    e|/12-12-12-12-12-8h10-8-7-|5/7-7-7-7-7-3h5-3-2--|
    b|-------------------------|---------------------|
    g|·------------------------|---------------------|
    d|·------------------------|---------------------|
    a|-------------------------|---------------------|
    E|-------------------------|---------------------|
    
      Em          D         Em
    e|----------------------------|--||
    b|-5--5-7-8-8-5p3h5-5-5h7p5-5-|--||
    g|---------------------------·|--||
    d|---------------------------·|x2||
    a|----------------------------|--||
    E|----------------------------|--||
    
    
       Em          D        Em          C        Em             D
    e|------3-3----2-2------------8-8-----8------10-10h12-10------------||
    b|---------------------8-8-8--8-8---8------10------------13-12-13h15||
    
  • E-10h12--12-12-12-12--10h12h10---------------------------|
    B------------------------------12--10-10h12--12-12-12-12-|
    G--------------------------------------------------------|
    D--------------------------------------------------------|
    A--------------------------------------------------------|
    E--------------------------------------------------------|
    
    E-----------------------------------------------|
    B-10h12h10--------------------------------------|
    G---------12-11-9--9-11-12-11-9h11p9---9-9h11-9-|
    D------------------------------------12---------|
    A-----------------------------------------------|
    E-----------------------------------------------|
    
    E-10h12--12-12-12-12--10h12h10---------------------------|
    B------------------------------12--10-10h12--12-12-12-12-|
    G--------------------------------------------------------|
    D--------------------------------------------------------|
    A--------------------------------------------------------|
    E------------------------------------------------
  • +
    ¡Colabora con nosotros!
    Envíanos tu versión de esta canción

Letra de Pompeya
Saliendo por Almafuerte y mi pena
esquivando a la gente que duerme ahi
calles de adoquines testigos del ayer
pasan carretas fantasmas de la noche
En la esquina del bar de La Plata y Saenz
los borrachos se pelean como costumbre
voy cruzando las vias de Homero Manzi
que terminan en la Estación Buenos Aires
Llegando a la Perito pasando la feria
se ve oscuro el horizonte hacia ambos lados
escuchás venir un tren, pero nada va a pasar
la adrenalina y el miedo en el aire sentirás
Y voy otra vez por el mismo destino que vivo
barrio que alguna vez diste letra al comienzo de un sigloo
desde aca se siente el olor a Riachuelo
que viene a lo lejos desde el puehnte siniestro
los pibes de alcorta doblados del paco
te piden monedas tapando tristezas
otros van a la murga,
otros van a la iglesia,
o jalan la bolsa o viven esta cancion




[Pompeya chords][Pompeya cifra]
© LaCuerda.net · aviso legal · privacidad · es · en · pt · contacto