Acordes de Guitarra » C »Callejeros » El nudo (Tab)

El nudo
Callejeros

Letras, Acordes y Tabs para Guitarra, Bajo y Ukulele

  • INTRO: RE-LA-RE-LA-SIm-LA
    
    RE    LA   RE             LA
    Un final (llano y liso final),
          SIm                  LA
    es lo que buscás, es lo que agitás
        SOL                 LA              RE  LA
    las noches de falsas victorias, terminarán
    RE   LA   RE          LA
    Sonreir, (solo y por placer).
     SIm
    No hay tiempo ni espacio,
                            LA
    no hay mundo ni fé...ni fé.
    
    RE              LA             SOL  LA
    Porque lo que empieza acaba al fin.
    LA           SOL
    La riqueza de este viaje
          RE            LA
    
  • INTRO: RE-LA-RE-LA-SIm-LA
    
    
    
    RE    LA   RE             LA
    Un final (llano y liso final),
          SIm                  FAm
    es lo que buscás, es lo que agitás
        SOL                 LA              RE  LA
    las noches de falsas victorias, terminarán
    RE   LA   RE          LA
    Sonreir, (solo y por placer).
     SOL
    No hay tiempo ni espacio,
       SIm                     LA
    no hay mundo ni fé...ni fé.
    
    RE              LA             SOL  LA
    Porque lo que empieza acaba al fin.
    LA           SOL
    
  • INTRO:
    
    e|------2h3-2-0----------------------2h3-2-0------/5-3-2----|
    B|------3-3-3-3----------------------3-3-3-3-------------5--|
    G|------2-2-2-2---(2)-2/4-6-4-2------2-2-2-2--(2)-----------|
    D|--(0)-0-0-0-0---(2)------------(0)-0-0-0-0--(2)-----------|
    A|----------------(0)-------------------------(0)-----------|
    E|----------------------------------------------------------|
    
    e|------------------------------------------------------------------------------|
    B|-------2-3----------2-3-2-5------2-3-2----------------------------------(10)--|
    G|-(4)-4----4-2-(4)-4--------(4)-4-------0-2-(4)--0-2-(4)-4-4/9--11-9-11-9------|
    D|------------------------------------------------------------------------------|
    A|------------------------------------------------------------------------------|
    E|------------------------------------------------------------------------------|
    
    PRIMER VERSO :
    
    e|-----2h2-0--------------------2h3-0----------------------------------------------5--------
  • El nudo – Callejeros – Sed
    
    Nueva corrección del tema. Hice unas nuevas modificaciones.
    Tiene bastantes cambios con respecto a la anterior.
    ESTA ES LA TABLATURA CORRECTA.
    Es muy importante escuchar BIEN el tema antes de tocarlo,
    porque tiene muchos arreglos escondidos. Espero les sirva.
    Bajista: Christian Torrejón (“Dios”)
    
    INTRO                                    x= varias veces
    
    Después de la guitarra...
    
    G|-------|----------------------------------------------------|
    D|-------|----4-4-2-2----4-5-7-5-4-------2-4-2------2-4-2-----|
    A|-------|--2---------2------------0--0--------0--0-----------|
    E|---3x--|----------------------------------------------------|
    
    Un final...
    G|--------------4---------------------------------------------|
    D|-------4-5-7----7-5-4---------------------------------------| x2
    A|--5--5------------------------------------------------------|
    E|------------------------------------------------------------|
    
    Es lo que buscas...
    G|-------------------------------
  • +
    ¡Colabora con nosotros!
    Envíanos tu versión de esta canción

Letra de El nudo
Un final (llano y liso final),
es lo que buscás, es lo que agitás
las noches de falsas victorias, terminarán
Sonreir, (solo y por placer).
No hay tiempo ni espacio,
no hay mundo ni fé...ni fé.
Porque lo que empieza acaba al fin.
La riqueza de este viaje
es el cambio a esta realidad,
porque si me muero es por luchar...
No olvidar, siempre resistir.
Que la idea sea el sol,
que al milagro lo cambien y se haga verdad.
No empezar a dejar de pensar,
que a las masas pensando
no las venceran jamás...jamás
Porque lo que empieza acaba al fin.
La riqueza de este viaje
es el cambio a esta realidad,
porque si muero es por luchar...
El nudo aprieta mal, bloqueando al ideal.
Todos los sueños se escapan en un grito.
Que cielo hay que mirar?, Dónde está la verdad?
Cuándo la muerte se hará humanidad... humanidad?
Porque si me voy es por luchar,
y no por mirar,
me voy por luchar.
Porque si me voy es por luchar,
no por mirar,
es por luchar.
Bueno, gente, costó pero acá está. Acordes fáciles pero eran difíciles
de distinguir. Les dejo pendiente la intro que si me pongo la puedo
llegar a sacar, pero mientras tanto tóquense la canción y disfruten de
ella en todos sus aspectos.
Cualquier cosa escríbanme a faqueipo@sinectis.com.ar o a
alan_heroico@yahoo.com.ar
Espero que les sirva. Larga vida al rock and roll. Chau.




[El nudo chords][El nudo cifra]
© LaCuerda.net · aviso legal · privacidad · es · en · pt · contacto