Tablatura para Bajo de Callejeros: El nudo
Conexión · Inscripción
Letras y Acordes
Pantalla Completa
Imprimir
Versión Texto
Añadir Favorito
Otras Versiones

Mostrar Diagramas
Desfile Automático
Formato del Texto


El nudo(BAJ)

Callejeros

calidad:
call0243
AUTOR: R.santos
ALBUM: Sed (2001)
Enviado por Gonzalo
El nudo – Callejeros – Sed

Nueva corrección del tema. Hice unas nuevas modificaciones.
Tiene bastantes cambios con respecto a la anterior.
ESTA ES LA TABLATURA CORRECTA.
Es muy importante escuchar BIEN el tema antes de tocarlo,
porque tiene muchos arreglos escondidos. Espero les sirva.
Bajista: Christian Torrejón (“Dios”)

INTRO                                    x= varias veces

Después de la guitarra...

G|-------|----------------------------------------------------|
D|-------|----4-4-2-2----4-5-7-5-4-------2-4-2------2-4-2-----|
A|-------|--2---------2------------0--0--------0--0-----------|
E|---3x--|----------------------------------------------------|

Un final...
G|--------------4---------------------------------------------|
D|-------4-5-7----7-5-4---------------------------------------| x2
A|--5--5------------------------------------------------------|
E|------------------------------------------------------------|

Es lo que buscas...
G|------------------------------------------------------------|
D|--------4444------------------------------------------------|
A|--2222---------------0000-----------------------------------|
E|---------------3333-----------------------------------------|

Terminaran...
G|--------------4---------------------------------------------|
D|-------4-5-7----7-5-4---------------------------------------| x3
A|--5--5------------------------------------------------------|
E|------------------------------------------------------------|

No hay tiempo ni espacio...
G|------------------------------------------------------------|
D|------------------------------------------------------------|
A|------------------------------------------------------------|
E|--3x--------------------------------------------------------|

Ni fe, ni fe...
G|----------------------------|-------------------------------|
D|-----4-4-2-2----4-4-2-2-----|-----2-4-2-------2-4-2---------|
A|---2----------2----------0--|---0-------0---0---------------|
E|----------------------------|-------------------------------|

Porque lo que empieza...
G|------------------------------------------------------------|
D|-----7------------------------------------------------------|
A|-5-5---5---------7------------------------------------------|
E|-------------5-5---5-5---3x---5x----------------------------|

La riqueza de este viaje...
G|------------------------------------------------------------|
D|---------4-2-----2-4-2--------------------------------------|
A|-------2-----0-0--------------------------------------------|
E|-55—33------------------------------------------------------|

Porque si me muero...
G|------------------------------------------------------------|
D|----2-------------------------------------------------------|
A|--0---0-----------------------------------------------------|
E|--------3x—5x-----------------------------------------------|

No olvidar...
G|--------------4---------------------------------------------|
D|-------4-5-7----7-5-4---------------------------------------| x2
A|--5--5------------------------------------------------------|
E|------------------------------------------------------------|

Que la idea sea el sol...
G|------------------------------------------------------------|
D|------------------------------------------------------------|
A|--2222---------------0000-----------------------------------|
E|---------2222--3333-----------------------------------------|

Ni se haga verdad...
G|--------------4---------------------------------------------|
D|-------4-5-7----7-5-4---------------------------------------| x3
A|--5--5------------------------------------------------------|
E|------------------------------------------------------------|

Que a las masas pensando...
G|------------------------------------------------------------|
D|------------------------------------------------------------|
A|------------------------------------------------------------|
E|---3x-------------------------------------------------------|

Jamás, jamás...
G|----------------------------|-------------------------------|
D|-----4-4-2-2----4-5-7-5-4---|-----2-4-2-------2-4-2---------|
A|---2----------2-----------0-|---0-------0-0-0---------------|
E|----------------------------|-------------------------------|

Porque lo que empieza...
G|------------------------------------------------------------|
D|-----7------------------------------------------------------|
A|-5-5---5---------7------------------------------------------|
E|-------------5-5---5-5---3x---5x----------------------------|

La riqueza de este viaje...
G|------------------------------------------------------------|
D|---------4-2-----2-4-2--------------------------------------|
A|-------2-----0-0--------------------------------------------|
E|-55—33------------------------------------------------------|

Porque si me muero...
G|------------------------------------------------------------|
D|----2-------------------------------------------------------|
A|--0---0-----------------------------------------------------|
E|--------3x—5x-----------------------------------------------|

El nudo aprieta mal...
G|------------------------------------------------------------|
D|------------------------------------------------------------|
A|------------77—77-------------------------------------------|
E|---77--77---------------------------------------------------|

Todos los sueños...
G|------------------------------------------------------------|
D|---------------7-5-4----------------------------------------|
A|---10x---7x—5x----------------------------------------------|
E|------------------------------------------------------------|

Que cielo hay que mirar...
G|------------------------------------------------------------|
D|------------------------------------------------------------|
A|-----------77—77--------------------------------------------|
E|---77-77----------------------------------------------------|

Cuando la muerte se hará...
G|------------------------------------------------------------|
D|-----14-12------12-10------7-5-4----------------------------|
A|-12----------10---------5x----------------------------------|
E|----------------------------------5x------------------------|

SOLO
G|------------------------------------------------------------|
D|------------------------------------------------------------| x2
A|---5x---------------2---------------------------------------|
E|--------5x---3x-3-5---3-------------------------------------|

Porque si me voy...
G|------------------------------------------------------------|
D|------------------------------------------------------------| x2
A|---5x---------------2---------------------------------------|
E|--------5x---3x-3-5---3-------------------------------------|

Final (3:03)
G|--------------12--------------------------------------------|
D|-----------------14-12--------------------------------------|
A|--5x------7x-------------------2-3-2-3-5-3-3-5--------------|
E|------5x----------------3--3-5------------------------------|

X = varias veces siguiendo el ritmo del tema
(3:03) = Tiempo transcurrido del tema

AGUANTE CALLEJEROS – INOXIDABLE PASIÓN
Dudas: gonza_mari4@hotmail.com
Este fichero es trabajo propio de su transcriptor y representa su interpretación personal de la canción. El material contenido en esta página es
para exclusivo uso privado, por lo que se prohibe su reproducción o retransmisión, así como su uso para fines comerciales.

© LaCuerda.net · Aviso Legal · Privacidad