Acordes de Guitarra » C »Callejeros » Algo mejor algo peor (Tab)

Algo mejor algo peor
Callejeros

  • Letra y Acordes
    C
    Siempre tuve un defecto
             G
    no se decir que no
    C
    y pasadas las cuatro
           G
    mi cara era un error
    
          Em             C    Am
    entrancado como un idiota fui
             C          Am
    con el moño en la cabeza
    C                Am
    buscando en esas tetas
       C          Am            F
    el calor para poder sobrevivir
             Am       C
    a la agonía de la noche
             Am          F
    
  • Letra y Acordes
    C
    Siempre tuve un defecto
             G
    no se decir que no
    C
    y pasadas las cuatro
           G
    mi cara era un error
    
          Em             C    Am
    entrancado como un idiota fui
             Am          C
    con el moño en la cabeza
    Am                C
    buscando en esas tetas
       Am          C            F
    el calor para poder sobrevivir
             Am       C
    a la agonía de la noche
             Am          F
    
  • Tab p/Bajo
    Sinceramente pensé que el bajo del tema estaba muy bueno, pero es medio
    Aburrido. Igual, Dios le mete un ritmo bárbaro.
    
    
    Siempre tuve un defecto...
    G|---7~-----------------------------------------------------------------
    D|----------------------------------------------------------------------
    A|----------------------------------------------------------------------
    E|----------------------------------------------------------------------
    
    Decir que no...
    G|----------------------------------------------------------------------
    D|----------------------------------------------------------------------
    A|----------------------------3-2-3-2-----------------------------------
    E|--333-0-333-0-333-0-333-3-3---------3x--------------------------------
    
    Entrancado...
    G|-----4-2--------------------------------------------------------------
    D|-2-5------------------------------------------------------------------
    A|------------------------------------------------------------------
  • +
    ¡Colabora con nosotros!
    Envíanos tu versión de esta canción

Letra de Algo mejor algo peor
Siempre tuve un defecto
no se decir que no
y pasadas las cuatro
mi cara era un error
entrancado como un idiota fui
con el moño en la cabeza
buscando en esas tetas
el calor para poder sobrevivir
a la agonía de la noche
a la desdicha de sentirme
un mercenario del alcohol
y alejarme entre los gritos y los tragos
otra vez solo un perdedor
Salimos de aquella histeria
hacia otro lugar
huyendo de los colmillos de la soledad
regalado ofrecí el sabor
de aquellos que en albergues
se hacen tibios y no llegan
al orgasmo ganador….que ganador!
fue ahi que comprobé
que siempre puede haber algo peor
fue asi que comprobé
que la angustia es prima de la desesperación
y que a veces, tal vez, estar solo es mejor
y que al cielo no se llega nunca de a dos
me quedé dormido y con ganas de mear
no existe peor remedio que la enfermedad
fin de turno, lo molesto señor
a este animal nocturno
la mañana lo encontró al huir
sin hígado, sin techo y sin amor
fue ahi que comprobé
que siempre puede haber algo Mejor
fue asi que comprobé
que la angustia es prima de la desolacion
fue ahi que comprobé
que siempre puede haber algo peor
fue asi que comprobé
que la angustia es prima de la desesperación
y que a veces, tal vez, estar solo es mejor
y que al cielo no se llega nunca de a dos
Algunas pequeñas correcciones en los acordes de la mejor versión. Gonza



© LaCuerda.net · aviso legal · privacidad · contacto