Acordes de Guitarra » C »Los Caligaris » La Montaña (Tab)

La Montaña
Los Caligaris

  • Letra y Acordes
    INTRO: DO - MI - LAm - FAm
           DO - MI - FA - LA#
    
           DO                          SOL
    Hoy no voy a cantarle al sol, ni al mar,
               LAm                       MIm
    ni a las estrellas, ni a casitas de muñecas.
             LA#                    LA
    Hoy sólo quiero contar cómo me siento,
            REm                        SOL
    estoy viviendo un dia en blanco y negro.
    
             DO                        SOL
    Asi, que no me vengan a hablar de amor
             LAm                       MIm
    porque yo soy un monumento al malhumor.
           LA#                          LA
    Y mi sonrisa siempre fue una mala actriz,
           REm                        SOL
    ¿Cómo puede una ciudad estar tan gris?
    
  • Tablatura
                 DO        MI          LAm     FAm
    e|----------------------------------------------------|
    b|----------------------------------------------------|
    g|--------4-7-5---5---4s5-4--4-4-7-5---5--------------|
    d|--5-5-7-------5---5----------------7---7--6---------|
    a|----------------------------------------------------|
    E|----------------------------------------------------|
            DO         MI         FA     LA#
    e|----------------------------------------------------|
    b|----------------------------------------------------|
    g|--5-7-5---5---4s5-4--4h5p4----5--7h9p7--------------|
    d|-5------5---5---------------7-----------------------|
    a|----------------------------------------------------|
    E|----------------------------------------------------|
    
    
    bueno me gusto este tema..
    le cambie algunas notas que para mi estaban mal,
    espero que este suene mejor..
    Nacho0!!!
    
  • Tablatura
    ke tranza banda, ps aki les dejo esta transkripcion hecha por un servidor
    la anterior no me sonaba igual, pero creo que esta es mejor. disfrutenla
    
    E|-------------------------|---------------|------------------|
    A|-------------------------|---------------|------------------|
    D|-------2-4-7-5-2-5-2-5-4-|-5-7-5---5-----|--5-7-5---5---5-4-|
    G|---5-5-------------------|-------7---7-6-|-7------7---7-----|
    B|-------------------------|---------------|------------------|
    E|-------------------------|---------------|------------------|
    
    E|-------------------|
    A|-------------------|
    D|-4h5p4---5-7/9-7~~~|
    G|-------7-----------|
    B|-------------------|
    E|-------------------|
    
    espero les haya gustado.
  • +
    ¡Colabora con nosotros!
    Envíanos tu versión de esta canción

Letra de La Montaña
Hoy no voy a cantarle al sol, ni al mar,
ni a las estrellas, ni a casitas de muñecas.
Hoy sólo quiero contar cómo me siento,
estoy viviendo un dia en blanco y negro.
Asi, que no me vengan a hablar de amor
porque yo soy un monumento al malhumor.
Y mi sonrisa siempre fue una mala actriz,
¿Cómo puede una ciudad estar tan gris?
No hay luz en casa pero con la vela alcanza
para alumbrarme la amargura, dos o tres puntos de sutura
No hay luz en casa pero con la vela alcanza
Y en un reves a mi destino, un dia de estos yo me animo.
Hoy no hay metaforas, voy a ser sincero,
las cosas no me estan saliendo como quiero.
Es una tarde en la que siento que una fiesta
seria dormir treinta y cinco años la siesta.
De vez en cuando caigo en estos agujeros.
Pide licencia el humor que siempre tengo
Soy mil de azucar para una sola de sal
Tengo derecho yo a sentirme un dia mal
No hay luz en casa pero con la vela alcanza
para alumbrarme la amargura, dos o tres puntos de sutura
Y en un reves a mi destino, un dia de estos yo me animo.
Me voy a ir a vivir a la montaña,
donde todo es poco, pero igual alcanza
Me voy a ir a vivir a la montaña,
y que me despierte el sol a la mañana.
Me voy a ir a vivir a la montaña,
donde todo es poco, pero igual alcanza
Me voy a ir a vivir a la montaña,
y que me despierte el sol a la mañana.
Espero que les guste. Cualquier cosa manden mail
ARBUSTIN



© LaCuerda.net · aviso legal · privacidad · contacto
DINAMICO