Acordes de Guitarra » C »Caifanes » Cuéntame tu Vida (Tab)

Cuéntame tu Vida
Caifanes

Letras, Acordes y Tabs para Guitarra, Bajo y Ukulele

  • C#m D C#m D
    
    VERSO 1:
    C#m
    Desde un tiempo para aca,
          A
    veo solo cristales,
    C#m
    Con olor a alcohol
            A
    que me hace llorar,
    
    C#m
    Que me hace tumbarme
            A
    al suelo y no parar
    C#m
    Cuanto tiempo va a pasar
           A
    para al olvidar.
    
  • G#5sus                             Am
    Desde un tiempo para aca, veo solo cristales,
    
     G#5sus                            Am
    Con olor a alcohol que me hace llorar,
    
    G#5sus                          Am
    Que me hace tumbarme al suelo y no parar
    
    G#5sus                      Am
    Cuanto tiempo va a pasar para al olvidar.
    
    
    G#5sus                        Am
    No se cuanto tiempo llevo hundido aqui,
    
    G#5sus                      Am
    Ya no se ni como usar los pies,
    
    G#5sus                        Am
    
  • Intro:
    e------------------------------------
    B-------2-------2------2-------------
    G--2-2-----2-2-----2-2---2--5-5-3-2--
    D------------------------------------
    A------------------------------------
    E------------------------------------
    
    
    Solo:
    e-----------------------------5--------------------------------------
    B-3-3b-(5)----3-3(b)5-------------3----------------------------------
    G---------3-5---------5-3-2-3-2-------2-2-2-3-5-2-3-0-2-0------------
    D---------------------------------------------------------3----------
    A--------------------------------------------------------------------
    E--------------------------------------------------------------------
    
                                                           X4
    e-12b(14)--12--10---12--12b(14)--12--10---/-------------------12-10--/
    B----------------10---------------------10/----10-11-10-13-10--------/
    G-----------------------------------------/--12----------------------/
    D-----------------------------------------/-
  • G----------6-------------6------------6--------10--10--8---7 
    D-8---9---------8----9---------8----9------8----
    
    
    guitarra 2 (vampiro)
    intro 2
    B---8*---6*----4*-----3*---------7/8--6--7*-----9/10----8---9
    
    C#m
    E----4-----             E-----9----     
    B----5-----      o      B-----9----
    G----6-----             G-----9----
    D----6-----             
     
    
    A
    E---5------             E---12------
    B---5-----      o       B---14------
    G---6------             G---14------
    D---7------
    
  • Cuentame tu vida: En Vivo
    Intro: 
    Verso 1
    e-----------------------0-0-----|
    b---0-2---0-2----0-2--------3-2-|
    g-2-----2------2-----2----------|
    d-------------------------------|
    a-------------------------------|
    e-------------------------------|
    
    Verso 2
    e----------------------0-0-----|
    b---0-2---0-2----0-2-------3-2-|
    g-1-----1------1-----0---------|
    d------------------------------|
    a------------------------------|
    e------------------------------|
    En veces se toca 
    Verso 1
    Verso 2 repitiendose varias veces 
    
    Luego 2 veces
    e-2-0-----2---5-2-------------------|
    b-----4-2---3-----------------------|
    g-----------------------------------|
    d-----------------------------------|
    a-----------------------------------|
    e-----------------------------------|
    
    Solo
    e----------------0-----------------5-----------------------|
    b-3-4-3------1-3---3----1------------3-1---1---------------|
    g----------3--------------3-2-3-2--------3---2-3-0-2-------|
    d--------------------
  • esta es una buena rola para practicar la técnica de slap
    
             C#m         D              C#m          D
    G|---------------------------------------------------99-------------97|
    D|-----------------------------------------------------7---------5h7--|
    A|---0h2h4-0h2h4-0h4h5-0h4h5-----0h2h4-0h2h4-x-4h5-5----0h4h5-5h7-----|
    E|0h4------------------------0h4--------------------------------------|
      T  T     T     T     T     T T T     T     T T   TPPP       T  T  PP
    
      Desde un tiempo...
      C#m      A        C#m      A        C#m      A        C#m
    G|--------------------------------------------------------------
    D|--------------------------------------------------------------
    A|4-4--4-4----------4-4--4-4----------4-4--4-4----------4-4—-4-4
    E|---------5-5--5-5----------5-5--5-5----------5-5--5-5---------
    
      A                        C#m             D
    G ----------------------------------------------------------|
    D ---------------7-7----------------------------------------|
    
  • +
    ¡Colabora con nosotros!
    Envíanos tu versión de esta canción

Letra de Cuéntame tu Vida
VERSO 1:
Desde un tiempo para aca,
veo solo cristales,
Con olor a alcohol
que me hace llorar,
Que me hace tumbarme
al suelo y no parar
Cuanto tiempo va a pasar
para al olvidar.
VERSO 2:
No se cuanto tiempo
llevo hundido aquí,
Ya no se ni como
usar los pies,
Ya no se que es lo que
corre por mis venas
Todo el cuerpo se me
entume al respirar.
Cuéntame tu vida, cuéntamela toda,
Dime si estoy vivo, si todavia respiro.
VERSO 3:
Veo perros que se
arrastran al ladrar;
Me acuesto en el suelo
y me dan ganas de morder
Esa angustia de tener
seco el corazón.
Cuéntame algo,
que si no voy a enloquecer.
Cuéntame tu vida, cuentamela toda,
Dime si estoy vivo, si todavia respiro.
Cuéntame tu vida, cuentamela toda,
Dime si estoy vivo, si todavia respiro.
Cuéntame tu vida, cuentamela toda,
Dime si estoy vivo, si todavia respiro.
Cuéntame tu vida, cuentamela toda,
Dime si estoy vivo, si todavia respiro.
Ahhhh Ahhh Ahhh...
ALMITA TE AMO... RECUERDALO...




[Cuéntame tu Vida chords][Cuéntame tu Vida cifra]
© LaCuerda.net · aviso legal · privacidad · es · en · pt · contacto