Acordes de Guitarra » C »Caifanes » Aviéntame (Tab)

Aviéntame
Caifanes

Letras, Acordes y Tabs para Guitarra, Bajo y Ukulele

  • INTRO:  Am, Bm, Cm  (BISx2)(Siempre que toques estos 
    acordes juntos  procura tocar nada mas las cuerdas 5, 4 y 3)
    
    F                        Am
    Que triste se nos fue la vida;
     F                    Am  
    atras del cielo nos miran llorar,
     F                    Am
    fumando lunas a escondidas,
    F                      Am       (Bm,Cm, Bm)     
    revoloteando entre viejas paredes.
                                           
     F                        Am                       
    Que triste se nos fue la vida;
     F                 Am                      
    la lluvia acida mojaba octubre,
     F                       Am
     y de rodillas vuelan lamentos
     F                        Am           (Bm, Cm, Bm)            
    de algunos buitres, de algunos cerdos.
    
  • Am Bm C Bm
    Am Bm C Bm
    
    VERSO 1:
    F                        Am
    Que triste se nos fue la vida;
    F                    Am
    atrás del cielo nos miran llorar,
    F                    Am
    fumando lunas a escondidas,
    F                      Am       Bm C Bm
    revoloteando entre viejas paredes.
    
    VERSO 2:
    F                        Am
    Que triste se nos fue la vida;
    F                 Am
    la lluvia ácida mojaba octubre,
    F                       Am
    y de rodillas vuelan lamentos
    
  •       Am5        Bm5         C5                  (bajo)
    E-----------|-----------|-----------|-----------|--------------------|
    B-----------|-----------|-----------|-----------|--------------------|
    G--2--2--2--|-4--4--4---|-5--5--5---|-4--4--4---|-------------2--2--2|
    D--2--2--2--|-4--4--4---|-5--5--5---|-4--4--4---|-------------2--2--2|
    A--0--0--0--|-2--2--2---|-3--3--3---|-2--2--2---|-------------0--0--0|
    E-----------|-----------|-----------|-----------|-3-s-5-3-0----------|
    
                                         Estrofa 1 y 2 (3 veces, la 4ta. Hasta el compás 3)
    E-----------|-----------|-----------|-------------|--------------|----
    B-----------|-----------|-----------|-------------|--------------|----
    G-4--4--4---|-5--5--5---|-4--4--4---|--4-5-4-4-5-4|---4-5-4-4-5-4|---4
    D-4--4--4---|-5--5--5---|-4--4--4---|-7-----7-----|5-7-----7-----|5-7-
    A-2--2--2---|-3--3--3---|-2--2--2---|-------------|--------------|----
    E-----------|-----------|-----------|-------------|--------------|----
    
                                     (Este cambio en la estrofa 2 compás 3) 
    E--------------|------------------|----------------------------------|
    B--------------|------------------|----------5-6-5-------------------|
    G-5-4-7-5-4-5-4|-4-5-4-7-5-4-5-4-*|----4-5-4------7-5----------------|
    
  •   A5             B5             C5             B5
     4/4
      Gtr I
    |--------------|--------------|--------------|-------------|
    |--------------|--------------|--------------|-------------|
    |-2---2---(2)--|-4---4---(4)--|-5---5---(5)--|-4---4---(4)-|
    |-2---2---(2)--|-4---4---(4)--|-5---5---(5)--|-4---4---(4)-|
    |-0---0---(0)--|-2---2---(2)--|-3---3---(3)--|-2---2---(2)-|
    |--------------|--------------|--------------|-------------|
    
    
        A5             B5             C5             B5
    ||---------------|--------------|--------------|---------------|
    ||o--------------|--------------|--------------|---------------|
    ||--2---2---(2)--|-4---4---(4)--|-5---5---(5)--|-4---4---(4)---|
    ||--2---2---(2)--|-4---4---(4)--|-5---5---(5)--|-4---4---(4)---|
    ||o-0---0---(0)--|-2---2---(2)--|-3---3---(3)--|-2---2---(2)---|
    ||---------------|--------------|--------------|---------------|
    
    
    
  • A ,  B  , C.  2 VECES,ESTA ES UNA EXELENTE ROLA NO PONGO LA LETRA 
    PUES PARA TOCARLA LA TIENES QUE OIR.
     
      ESTE ES EL RIFF QUE ACOMPAÑA CASI TODA LA CANCION :
    E-------------------------------------------------------------
    B-------------------------------------------------------------
    G-------------------------------------------------------------
    D-7-9-10-9-7-9-10-9---7-9-10-9-7-9-10-9-----------------------
    A------------------10------------------10---------------------
    E-------------------------------------------------------------
                            A veces el riff lleva esta variaci¢n :
    E---------------------|---------------------------------------
    B---------------------|---------------------------------------
    G----------7----------|--------7-9-10-9-7---------------------
    D-7-9-10-7--10-9-10-9-|-7-9-10------------10------------------
    A---------------------|---------------------------------------
    E---------------------|---------------------------------------
      Este es el riff del coro:    Y AHORA EL 1er. SOLO :
    E--------------------------|----------------------------------
    B--------------------------|-10-12-12/13~-10-13-13~-----------
    
  • Intro
    G|-----------------------------|
    D|-----------------------------|
    A|-----------------------------| x2
    E|-5-5-----7-7-----8-8-----7-7-|
    
    Verso
    G|-----------------------------|
    D|-----------------------------|
    A|-------------3-------------3-| x3
    E|-11----11------55----55------|
    
    G|------------------------------------------------------|
    D|------------------------------------------------------|
    A|-------------3----------------------------------------|
    E|-11----11------5-5-5-55--7-7-7-77--8-8-8-88--7-7-7-77-|
    
    [Verso]
    
    Coro
    G|--------------------------------------------------------------------------------|
    D|--------------------------------------------------------------------------------|
    A|--------------------------------------------------------------------------------| x2
    E|-5-5-5-55--1-1-1-11--3-3-3-33--3-3-3-33--5-5-5-55--8-8-8-88--3-3-3-33--3-3-3-33-|
    
    PosCoro
    G|----------------------------------------|
    D|----------------------------------------|
    A|---
  • +
    ¡Colabora con nosotros!
    Envíanos tu versión de esta canción
  • Tutorial
    HD
    Como Tocar Aviéntame - Caifanes [Tutorial Guitarra]
    13:31

Letra de Aviéntame
VERSO 1:
Que triste se nos fue la vida;
atrás del cielo nos miran llorar,
fumando lunas a escondidas,
revoloteando entre viejas paredes.
VERSO 2:
Que triste se nos fue la vida;
la lluvia ácida mojaba octubre,
y de rodillas vuelan lamentos
de algunos buitres, de algunos cerdos.
Aviéntame,
aviéntame hasta donde quieras,
y luego ven a mirar como revivo.
Aviéntame,
aviéntame hasta donde quieras,
y luego ven a mirar como no muero,
como aguanto.
VERSO 3:
Que tristes senos tiene Carmela;
el silicón le ha roto el corazón.
Y ahora llora como Ernesto,
que se ha castrado por falta de amor.
Avientame,
aviéntame hasta donde quieras,
y luego ven a mirar como revivo.
Avientame,
aviéntame hasta donde quieras,
y luego ven a mirar como no muero,
Aviéntame.
Aviéntame.
ALMITA TE AMO... RECUÉRDALO...




[Aviéntame chords][Aviéntame cifra]
© LaCuerda.net · aviso legal · privacidad · es · en · pt · contacto